Pink Floyd - Any Colour You Like (2)

Pink Floyd



Title: Any Colour You Like
Album: The Dark Side Of The Moon
Artist: Pink Floyd
Author: David Gilmour, Nick Mason, Richard Wright

Track 1: Lead Guitar (Gilmour)
E|---------|---------|---------|---------|---------|---------|---------|---------|---------|
B|---------|---------|---------|---------|---------|---------|---------|---------|---------|
G|-%-------|-%-------|-%-------|-%-------|-%-------|-%-------|-%-------|-%-------|-%-------|
D|-%-------|-%-------|-%-------|-%-------|-%-------|-%-------|-%-------|-%-------|-%-------|
A|---------|---------|---------|---------|---------|---------|---------|---------|---------|
E|---------|---------|---------|---------|---------|---------|---------|---------|---------|

E|---------|---------|---------|---------|---------|---------|---------|---------|---------|
B|---------|---------|---------|---------|---------|---------|---------|---------|---------|
G|-%-------|-%-------|-%-------|-%-------|-%-------|-%-------|-%-------|-%-------|-%-------|
D|-%-------|-%-------|-%-------|-%-------|-%-------|-%-------|-%-------|-%-------|-%-------|
A|---------|---------|---------|---------|---------|---------|---------|---------|---------|
E|---------|---------|---------|---------|---------|---------|---------|---------|---------|

E|---------|---------|---------|---------|---------|---------|-8-------8---------|-10-----13-----13----|
B|---------|---------|---------|---------|---------|---------|-------------------|---------------------|
G|-%-------|-%-------|-%-------|-%-------|-%-------|-%-------|--------------%----|---------------------|
D|-%-------|-%-------|-%-------|-%-------|-%-------|-%-------|--------------%----|---------------------|
A|---------|---------|---------|---------|---------|---------|-------------------|---------------------|
E|---------|---------|---------|---------|---------|---------|-------------------|---------------------|

E|--------13------------------|---------------------------7---5-----|---------------------------------|
B|---------------10--10--10---|------6----6----6-----6----8---6-----|--------6---------6---------6----|
G|-%-------------12--12--10---|-%---------7----5-----7--------------|-%------7----%----7----%----7----|
D|-%--------------------------|-%-----------------------------------|-%-----------%---------%---------|
A|----------------------------|-------------------------------------|---------------------------------|
E|----------------------------|-------------------------------------|---------------------------------|

E|------7---------7-------7----7---7---7----7----|-----------------------------------------|
B|------8---------8-------8----8---8---8----8----|------6---------6---------6---------6----|
G|-%----9----%----9---%--------9---9--------9----|-%----7----%----7----%----7----%----7----|
D|-%---------%--------%--------------------------|-%---------%---------%---------%---------|
A|-----------------------------------------------|-----------------------------------------|
E|-----------------------------------------------|-----------------------------------------|

E|------7---------7-------7----7---7---7----5----|------7---7---7---5-------------------------------|
B|------8---------8-------8----8---8---8----6----|------8---8---8---6-------------------------------|
G|-%----9----%----9---%--------9---9-------------|-%----------------------7---5-------5---%----7----|
D|-%---------%--------%--------------------------|-%------------------------------7-------%---------|
A|-----------------------------------------------|--------------------------------------------------|
E|-----------------------------------------------|--------------------------------------------------|

E|------------13-----------|----------------------------------------------|-----------------------------------------------|
B|-------8-----------------|------10--10--12--12---10---10--12------------|------10--10--12--12---10---10--12--------13---|
G|-%----------------%------|-%----10--10--12--12---10---10--12--%-----%---|-%----10--10--12--12---10---10--12--%----------|
D|-%----------------%------|-%----------------------------------%-----%---|-%----------------------------------%----------|
A|-------------------------|----------------------------------------------|-----------------------------------------------|
E|-------------------------|----------------------------------------------|-----------------------------------------------|

E|------13---------------------------------------|----------------5---3---1---------5---3--------|
B|-13-------13----10--10--10-----------8---------|----------------3---3---1---------6---3--------|
G|----------------------------10---10------7-----|------5---5-----------------%-------------%----|
D|-----------------------------------------------|-7--------------------------%-------------%----|
A|-----------------------------------------------|-----------------------------------------------|
E|-----------------------------------------------|-----------------------------------------------|

E|------10---10---10----13--13--13--10----|-----8---8---8---8---7---X---7---5---X---5---3---X---3---1-------|
B|----------------------------------------|-------------------------X-----------X-----------X---------------|
G|-0--------------------------------------|-%-----------------------------------------------------------%---|
D|----------------------------------------|-%-----------------------------------------------------------%---|
A|----------------------------------------|-----------------------------------------------------------------|
E|----------------------------------------|-----------------------------------------------------------------|

E|-1---0---0---0---------------------------------------------|----------------------------------------------|
B|-----------------3---3---3---1---1---1---0-----------------|-------------------------1---1---1---1---1----|
G|----------------------------------------------2---0--------|---------%----0----0--------------------------|
D|------------------------------------------------------2----|-2---4---%------------------------------------|
A|-----------------------------------------------------------|----------------------------------------------|
E|-----------------------------------------------------------|----------------------------------------------|

E|------5-----------5---3-----------3---1--------|-----------8-------8---10-------12---12-------8---|
B|------3-----8-------------6---3---5---3--------|------10-------10-------------------------10------|
G|-%----------5-----------------------------%----|-%--------------------------%---------------------|
D|-%----------------------------------------%----|-%--------------------------%---------------------|
A|-----------------------------------------------|--------------------------------------------------|
E|-----------------------------------------------|--------------------------------------------------|

E|-8---8--------8---7---7---7---7---5---5---5---5---1---1---1---|-------------------7---7---7---5----7---7---7---5----|
B|--------------------------------------------------------------|-1----3---3--------8---8---8---6----8---8---8---6----|
G|----------%---------------------------------------------------|---------------%-------------------------------------|
D|----------%---------------------------------------------------|---------------%-------------------------------------|
A|--------------------------------------------------------------|-----------------------------------------------------|
E|--------------------------------------------------------------|-----------------------------------------------------|

E|------7-----7-----7----7----------|------7----8----7---5-----------------------------------|
B|------8-----8-----8----8----------|------8----10---8---6---8-------------------------------|
G|-%--------------------------%-----|-%--------------------------10--7-------7---5-----------|
D|-%--------------------------%-----|-%----------------------------------10----------5-------|
A|----------------------------------|----------------------------------------------------8---|
E|----------------------------------|--------------------------------------------------------|

E|-------------------------1------|------13--13--13------------13--13--13-----------|
B|---------1----3----3-----3------|------------------15--------------------15---13--|
G|-0---2--------------------------|-%--------------------%--------------------------|
D|--------------------------------|-%--------------------%--------------------------|
A|--------------------------------|-------------------------------------------------|
E|--------------------------------|-------------------------------------------------|

E|----------------------------12----------------12--|-12-----------------------------------------------|
B|-15---13--15---13--15---13-------13--15---13------|-----13--15---13--15---13--15---13--15---13--15---|
G|--------------------------------------------------|--------------------------------------------------|
D|--------------------------------------------------|--------------------------------------------------|
A|--------------------------------------------------|--------------------------------------------------|
E|--------------------------------------------------|--------------------------------------------------|

E|-8---8---X----10------------------------------|--------------------------------------------------------|
B|---------X------------------------------------|--------------------------------------------------------|
G|-------------------%--------------------------|-%------------------------------------------------------|
D|-------------------%-----10---10--10--11--12--|-%----10---9----9---10--11--12--9---10--11--12--9---10--|
A|----------------------------------------------|--------------------------------------------------------|
E|----------------------------------------------|--------------------------------------------------------|

E|----------------------------------0---1---2-------|-7----5---7---7---7----5----7---5---7---8---7---5----|
B|----------------------------------0---1---2-------|-8----6---8---8---8----6----8---6---8---8---8---6----|
G|----------------------------------------------%---|-----------------------------------------------------|
D|-12----10--12---11--12---10--12---------------%---|-----------------------------------------------------|
A|--------------------------------------------------|-----------------------------------------------------|
E|--------------------------------------------------|-----------------------------------------------------|

E|------10---8-----6---6---6------------3--------|----------------5---3---1---------5---3--------|
B|-----------------------------6----6-------3----|------1---1-----3---3---1---------6---3--------|
G|-%---------------------------------------------|-2---------------------------%-------------%---|
D|-%---------------------------------------------|-----------------------------%-------------%---|
A|-----------------------------------------------|-----------------------------------------------|
E|-----------------------------------------------|-----------------------------------------------|

E|-----------10---10----13--13--13--10----|-10--8---7------------------------5-------|
B|------8---------------------------------|-----------------------------6--------6---|
G|-10-------------------------------------|--------------%---5---7-------------------|
D|----------------------------------------|--------------%---------------------------|
A|----------------------------------------|------------------------------------------|
E|----------------------------------------|------------------------------------------|

E|-10-----10-----10--------------|----------------------------------------------|-6-----5----3------3----6----|
B|-------------------8---10--8---|-10----------------------------------6---8----|-----------------------------|
G|-------------------------------|-----10--------------------------7------------|-----------------------------|
D|-------------------------------|---------10---10---10----10--10---------------|-----------------------------|
A|-------------------------------|----------------------------------------------|-----------------------------|
E|-------------------------------|----------------------------------------------|-----------------------------|

E|-5-----5---3--------3------|---------|
B|---------------6-----------|---------|
G|---------------------------|-%-------|
D|---------------------------|-%-------|
A|---------------------------|---------|
E|---------------------------|---------|
Pink Floyd - Any Colour You Like (2)
Pink Floyd - Any Colour You Like (2).gp4