Pink Floyd - Any Colour You Like (3)

Pink Floyd



Title: Any Colour You Like
Album: Dark Side Of The Moon
Artist: Pink Floyd
Author: Waters, Gilmour, Wright, Mason

Track 1: Guitar L
E|---------------------------------------|----------------------------------------|
B|-------6-----6--------6---6---5--------|----------------------------------------|
G|-%---------------%----------------%----|-%-----5----5----5----X----5---4---%----|
D|-%---------------%----------------%----|-%---------------------------------%----|
A|---------------------------------------|----------------------------------------|
E|---------------------------------------|----------------------------------------|

E|-------5-------5----5----5-------5---5--------|--------------------------------|---------|
B|-------6-------6----6----6-------6---5--------|--------------------------------|---------|
G|-%-----7---%---7----7----7---%---7---5---%----|----------4---%----------%------|-%-------|
D|-%---------%-----------------%-----------%----|--------------%----3-----%------|-%-------|
A|----------------------------------------------|-5----5-------------------------|---------|
E|----------------------------------------------|--------------------------------|---------|

E|---------|---------|---------|---------|---------|---------|---------|---------|---------|
B|---------|---------|---------|---------|---------|---------|---------|---------|---------|
G|-%-------|-%-------|-%-------|-%-------|-%-------|-%-------|-%-------|-%-------|-%-------|
D|-%-------|-%-------|-%-------|-%-------|-%-------|-%-------|-%-------|-%-------|-%-------|
A|---------|---------|---------|---------|---------|---------|---------|---------|---------|
E|---------|---------|---------|---------|---------|---------|---------|---------|---------|

E|---------|---------|---------|---------|---------|---------|---------|---------|---------|
B|---------|---------|---------|---------|---------|---------|---------|---------|---------|
G|-%-------|-%-------|-%-------|-%-------|-%-------|-%-------|-%-------|-%-------|-%-------|
D|-%-------|-%-------|-%-------|-%-------|-%-------|-%-------|-%-------|-%-------|-%-------|
A|---------|---------|---------|---------|---------|---------|---------|---------|---------|
E|---------|---------|---------|---------|---------|---------|---------|---------|---------|

E|---------|-10------10--------|-10---------13---------------|--------13------------------|
B|---------|-------------------|-13---------16---------------|--------16-----12---10------|
G|-%-------|--------------%----|-------%-----------%----%----|-%-------------12---10--%---|
D|-%-------|--------------%----|-------%-----------%----%----|-%----------------------%---|
A|---------|-------------------|-----------------------------|----------------------------|
E|---------|-------------------|-----------------------------|----------------------------|

E|----------------------------------------------|-----------------------------------------|
B|------10--10---------------------12--10-------|----------------10------------------10---|
G|-%----10--10---------------------12--10--%----|-%----%----%---------%----10---%---------|
D|-%------------12---10----12--X-----------%----|-%----%----%---------%---------%---------|
A|----------------------------------------------|-----------------------------------------|
E|----------------------------------------------|-----------------------------------------|

E|--------------------------------------------|--------------------------------------------|
B|------12--------12--------12--12-------12---|------12--------12--------12--12-------12---|
G|-%----12---%----12---%----12--12--%----12---|-%----12---%----12---%----12--12--%----12---|
D|-%---------%---------%------------%---------|-%---------%---------%------------%---------|
A|--------------------------------------------|--------------------------------------------|
E|--------------------------------------------|--------------------------------------------|

E|-----------------------------------------------|-----------------------------------------------------------|
B|------13---12-------------12--12--12--10-------|-----------------------------------------------------------|
G|-%----12---12---%----%----12--12--12--10--%----|-%----12--12--12--10--%--------------------%---------------|
D|-%--------------%----%--------------------%----|-%--------------------%----12--10------10--%-------12--12--|
A|-----------------------------------------------|-----------------------------------12----------12----------|
E|-----------------------------------------------|-----------------------------------------------------------|

E|----------------13---------------|----------------------------------------|-----------------------------------------------|
B|-----------12---13---12----------|------10--10--12--12---10----12---------|------10--10--12--12---10----12--------13--13--|
G|-----------12--------12---%------|-%----10--10--12--12---10----12---%-----|-%----10--10--12--12---10----12---%------------|
D|-12---10------------------%------|-%--------------------------------%-----|-%--------------------------------%------------|
A|---------------------------------|----------------------------------------|-----------------------------------------------|
E|---------------------------------|----------------------------------------|-----------------------------------------------|

E|------13---------------------------------------------|-----------------------------------------------------|
B|-15-------15-------13--13--13-----------10-----------|----------------------12----------------12--10-------|
G|---------------%---------------12--%---------10--%---|----------%-------%---12----------------12--10--%----|
D|---------------%-------------------%-------------%---|-10---12--%---12--%--------12---12--12----------%----|
A|-----------------------------------------------------|-----------------------------------------------------|
E|-----------------------------------------------------|-----------------------------------------------------|

E|----------------------------------------------------|-----------------------------------------------------------------|
B|---------10------15------15----18--18--18--15-------|-----13--13--13--13--12--0---12--10--0---10--8---0---8---6---0---|
G|-10--12------%-------%-------------------------%----|-%---------------------------------------------------------------|
D|-------------%-------%-------------------------%----|-%---------------------------------------------------------------|
A|----------------------------------------------------|-----------------------------------------------------------------|
E|----------------------------------------------------|-----------------------------------------------------------------|

E|--------------------------------------------------------------|-------------------------------------------------|
B|-6---5---0---5---4---0---3---2-------1---0--------------------|-------------------------X---X---X---X---X---X---|
G|---------------------------------2-----------2---2---0--------|---------------%---------X---X---X---X---X---X---|
D|---------------------------------------------------------2----|-2---4-----5---%---5-----------------------------|
A|--------------------------------------------------------------|-------------------------------------------------|
E|--------------------------------------------------------------|-------------------------------------------------|

E|-----------------------------------------------------|-----------10-------------------------------------------|
B|---------12-------12-------12--12----------10--------|------10-------10--13--15--13--15--15--15--15---13--13--|
G|-X---%---12---%---12---%---12--12--10------10--------|-%------------------------------------------------------|
D|-----%--------%--------%---------------12------12----|-%------------------------------------------------------|
A|-----------------------------------------------------|--------------------------------------------------------|
E|-----------------------------------------------------|--------------------------------------------------------|

E|--------------------------------------------------------------|--------------------------------------------------------------|
B|-----13--13--13--13--12----------12--10----------10-----------|----------------------12--12--12------12--12--12--------------|
G|-%-----------------------%---%-----------%---%------------%---|------------------%---12--12--12--%-------12--12--12--%---%---|
D|-%-----------------------%---%-----------%---%--------12--%---|-10---12--12--12--%---------------%-------------------%---%---|
A|--------------------------------------------------------------|--------------------------------------------------------------|
E|--------------------------------------------------------------|--------------------------------------------------------------|

E|-----------------------------------------------------------------|-----------------------------------------------------------------|
B|---------12----------12----------12----------12----------12------|---------12--12--12--12--12--12----------------------------------|
G|-%---%---12--%---%---12--%---%---12--%---%---12--%---%---12--%---|-%---%---12--12--12--12--12--12--12--10--10--------------%---%---|
D|-%---%-------%---%-------%---%-------%---%-------%---%-------%---|-%---%---------------------------------------12--12------%---%---|
A|-----------------------------------------------------------------|-----------------------------------------------------10----------|
E|-----------------------------------------------------------------|-----------------------------------------------------------------|

E|--------------------------------------------|---------13--13--13--10------------------13--13--13--10----------|
B|--------------------------------------------|-------------------------------------------------------------13--|
G|-----------------------------%----%----%----|-%---%-------------------%---%---%---%-------------------%-------|
D|---------10---12---12---X----%----%----%----|-%---%-------------------%---%---%---%-------------------%-------|
A|-10--12-------------------------------------|-----------------------------------------------------------------|
E|--------------------------------------------|-----------------------------------------------------------------|

E|-----------------------------------------------------------------|-----------------------------------------------------------------|
B|-15--13--13--15--13--13--15--13--13--15--13--13--15--13--13--15--|-13--13--15--13--13--15------13--15------13--15------13--15--13--|
G|-----------------------------------------------------------------|-------------------------%-----------%-----------%---------------|
D|-----------------------------------------------------------------|-------------------------%-----------%-----------%---------------|
A|-----------------------------------------------------------------|-----------------------------------------------------------------|
E|-----------------------------------------------------------------|-----------------------------------------------------------------|

E|-----------------------------------------------------------------|--------------------------------------------------------|
B|-13--13--13--13--13--13--13------X-------------------------------|--------------------------------------------------------|
G|-----------------------------%-------%-------%-------------------|--------------------------------------------------------|
D|-----------------------------%-------%---10--%---10--11--11--12--|-12---10---9----9---10--11--12--9---10--11--12--9---10--|
A|-----------------------------------------------------------------|--------------------------------------------------------|
E|-----------------------------------------------------------------|--------------------------------------------------------|

E|-----------------------------------------------------------------|---------------------------------------10---10-------|
B|-----------------------------------------------------------------|-----------X---12----------10--10------12---12-------|
G|---------%-----------%-----------%-----------%-------------------|-12---10---12--12--%---%---10--10--X------------12---|
D|-12--10--%---10--12--%---11--12--%---11--12--%---10--11--11--12--|-------------------%---%-----------------------------|
A|-----------------------------------------------------------------|-----------------------------------------------------|
E|-----------------------------------------------------------------|-----------------------------------------------------|

E|--------------------------------------------------|-----------------------------------------------------|
B|-------------------------------------10-----------|-----------12----------------------15----------------|
G|-12---12--X---12---12---10---X---12---------------|-----------X-------%---%---12--14------14--12----X---|
D|-12---12--X---12---12--------------------12--10---|-10---12-------12--%---%-----------------------------|
A|--------------------------------------------------|-----------------------------------------------------|
E|--------------------------------------------------|-----------------------------------------------------|

E|------13-----------------------------------------|---------------------------------------10------|
B|-13-------13--13---13----13------13------10------|-------------------------------10--13------10--|
G|-----------------------------%-------13------10--|----------------10---10---12-------------------|
D|-----------------------------%-------------------|-10---12---12----------------------------------|
A|-------------------------------------------------|-----------------------------------------------|
E|-------------------------------------------------|-----------------------------------------------|

E|-------------------------------|----------------------------------------------|-----------------------5---6----|
B|-13-----13-----15--13--10------|-10--------------------------------------10---|-11----10---8------8------------|
G|---------------------------12--|------------------------------------10--------|--------------------------------|
D|-------------------------------|------10---10---10---10---10---10-------------|--------------------------------|
A|-------------------------------|----------------------------------------------|--------------------------------|
E|-------------------------------|----------------------------------------------|--------------------------------|

E|-6---5----5----5---3---1----3-----3-----|
B|----------------------------------------|
G|----------------------------------------|
D|----------------------------------------|
A|----------------------------------------|
E|----------------------------------------|
Pink Floyd - Any Colour You Like (3)
Pink Floyd - Any Colour You Like (3).gp4