Pink Floyd - Arnold Layne (2)

Pink Floyd



Title: Arnold Layne
Album: 
Artist: Pink Floyd
Author: Syd Barrett

Track 1: Electric Guitar
E|--------------------|-----------------------------------------|-----------------------------------------|
B|--------------------|-----------------------------------------|-----------------------------------------|
G|-%------%-----------|-----------------------------------------|-----------------------------------------|
D|-%------%-----------|-----------------------------------------|-----------------------------------------|
A|---------------6----|-7----7----7----7----7----7----7----7----|-7----7----7----7----7----7----7----7----|
E|---------------4----|-5----5----5----5----5----5----5----5----|-5----5----5----5----5----5----5----5----|

E|-----------------------------------------|-----------------------------------------|
B|-----------------------------------------|-----------------------------------------|
G|-----------------------------------------|-----------------------------------------|
D|-----------------------------------------|-----------------------------------------|
A|-7----7----7----7----7----7----7----7----|-5----5----5----5----5----5----5----5----|
E|-5----5----5----5----5----5----5----5----|-3----3----3----3----3----3----3----3----|

E|-----------------------------------------|-----------------------------------------|
B|-----------------------------------------|-----------------------------------------|
G|-----------------------------------------|-----------------------------------------|
D|-----------------------------------------|-----------------------------------------|
A|-4----4----4----4----4----4----4----4----|-3----3----3----3----3----3----3----3----|
E|-2----2----2----2----2----2----2----2----|-1----1----1----1----1----1----1----1----|

E|---------------------------------|-------------------------------------|-----------------------------|
B|---------------------------------|-------------------------------------|------2-----2----2----2------|
G|------1--------------------------|----------------------1----1---------|-----------------------------|
D|----------------------2----------|-------2----2----2----2----2----0----|-2---------------------------|
A|-2----------2----2----------2----|-2-----2----2----2----2----2----0----|-0---------------------------|
E|-0-------------------------------|-------------------------------------|-----------------------------|

E|------3-----------2----------|-------------------------------------|----------------X-------------------0----|
B|-0----------------------3----|------0------------------------------|----------------X----7----5---------2----|
G|-0-----------2---------------|------------1----1-------------------|----------------X----7----5----%----2----|
D|-0-----------0---------------|-------------------------------------|---------------------7----5----%----2----|
A|-----------------------------|-2--------------------2----2----2----|-2----2----2---------5----3---------0----|
E|-3---------------------------|-0--------------------0----0----0----|-0----0----0-----------------------------|

E|-0-------|-0-----------------|----------------X--------------------|-----------------2----2----------|
B|-2-------|-2-----------------|----------------X----7----5----------|-------0---------3---------3-----|
G|-2-------|-2-------%---------|----------------X----7----5----%-----|-0----------0----2---------------|
D|-2-------|-2-------%---------|---------------------7----5----%-----|-0---------------0---------------|
A|-0-------|-0------------6----|-2----2----2---------5----3----------|-2-------------------------------|
E|---------|--------------4----|-0----0----0-------------------------|-3-------------------------------|

E|------0------------------------------|----------------------3------|------2--------------------------|
B|------------2----2-------------------|------1----------0-----------|-3----------3----3---------------|
G|-2--------------------2----2----0----|-0----------0----0-----------|-2--------------------2----------|
D|-2-----------------------------------|-2----------0----0-----------|-0-------------------------------|
A|-0-----------------------------------|-3---------------2-----------|----------------------------0----|
E|-------------------------------------|-----------------3-----------|---------------------------------|

E|--------------------------3------|------2------------------------------|-------0------0----0----|
B|------1--------------0-----------|------------3----3-------------------|-------0------0----0----|
G|-0---------2----0----0-----------|-2--------------------2---------%----|-1-----1------1----1----|
D|-2-------------------0-----------|-0-------------------------0----%----|-2-----2------2----2----|
A|-3-------------------2-----------|-------------------------------------|-2-----2------2----2----|
E|---------------------3-----------|-------------------------------------|-0-----0------0----0----|

E|-0-----0------0----X----|-3-----3-----3-----3----3----|-3----3------3----3----3----3----|
B|-0-----0------0----X----|-0-----0-----0-----0----0----|-0----0------0----0----0----0----|
G|-1-----1------1----X----|-0-----0-----0-----0----0----|-0----0------0----0----0----0----|
D|-2-----2------2----X----|-0-----0-----0-----0----0----|-0----0------0----0----0----0----|
A|-2-----2------2----X----|-2-----2-----2-----2----2----|-2----2------2----2----2----2----|
E|-0-----0------0----X----|-3-----3-----3-----3----3----|-3----3------3----3----3----3----|

E|-0-----0-----0----0-----0----|-0----0----0----0----0----0----0----0----|-2-----2----X----3-----3----X----|
B|-2-----2-----2----2-----2----|-2----2----2----2----2----2----2----2----|-3-----3----X----0-----0----X----|
G|-2-----2-----2----2-----2----|-2----2----2----2----2----2----2----2----|-2-----2----X----0-----0----X----|
D|-2-----2-----2----2-----2----|-2----2----2----2----2----2----2----2----|-0-----0----X----0-----0----X----|
A|-0-----0-----0----0-----0----|-0----0----0----0----0----0----0----0----|-----------------2-----2----X----|
E|-----------------------------|-----------------------------------------|-----------------3-----3----X----|

E|-0-----0----X----|-0-------|-0-----------------|-----------------------------------------|
B|-0-----0----X----|-2-------|-2-----------------|-----------------------------------------|
G|-1-----1----X----|-2-------|-2-------%---------|-----------------------------------------|
D|-2-----2----X----|-2-------|-2-------%---------|-----------------------------------------|
A|-2-----2----X----|-0-------|-0------------6----|-7----7----7----7----7----7----7----7----|
E|-0-----0----X----|---------|--------------4----|-5----5----5----5----5----5----5----5----|

E|-----------------------------------------|-----------------------------------------|
B|-----------------------------------------|-----------------------------------------|
G|-----------------------------------------|-----------------------------------------|
D|-----------------------------------------|-----------------------------------------|
A|-7----7----7----7----7----7----7----7----|-7----7----7----7----7----7----7----7----|
E|-5----5----5----5----5----5----5----5----|-5----5----5----5----5----5----5----5----|

E|-----------------------------------------|-----------------------------------------|
B|-----------------------------------------|-----------------------------------------|
G|-----------------------------------------|-----------------------------------------|
D|-----------------------------------------|-----------------------------------------|
A|-7----7----7----7----7----7----7----7----|-4----4----4----4----4----4----4----4----|
E|-5----5----5----5----5----5----5----5----|-2----2----2----2----2----2----2----2----|

E|-----------------------------------------|---------------------------------|-------------------------------------|
B|-----------------------------------------|---------------------------------|-------------------------------------|
G|-----------------------------------------|------1--------------------------|----------------------1----1---------|
D|-----------------------------------------|----------------------2----------|-------2----2----2----2----2----0----|
A|-3----3----3----3----3----3----3----3----|-2----------2----2----------2----|-2-----2----2----2----2----2----0----|
E|-1----1----1----1----1----1----1----1----|-0-------------------------------|-------------------------------------|

E|---------|---------|---------|---------|---------|---------|---------|---------|-----------------------------------------|
B|---------|---------|---------|---------|---------|---------|---------|---------|-----------------------------------------|
G|-%-------|-%-------|-%-------|-%-------|-%-------|-%-------|-%-------|-%-------|-----------------------------------------|
D|-%-------|-%-------|-%-------|-%-------|-%-------|-%-------|-%-------|-%-------|-----------------------------------------|
A|---------|---------|---------|---------|---------|---------|---------|---------|-7----7----7----7----7----7----7----7----|
E|---------|---------|---------|---------|---------|---------|---------|---------|-5----5----5----5----5----5----5----5----|

E|-----------------------------------------|-5----5-----3----3-----3-----|-0----0----0----5----5------|
B|-----------------------------------------|-5----5-----3----3-----3-----|-0----0----0----5----5------|
G|-----------------------------------------|-6----6-----4----4-----4-----|-1----1----1----6----6------|
D|-----------------------------------------|-7----7-----5----5-----5-----|-2----2----2----7----7------|
A|-7----7----7----7----7----7----7----7----|-7----7-----5----5-----5-----|-2----2----2----7----7------|
E|-5----5----5----5----5----5----5----5----|-5----5-----3----3-----3-----|-0----0----0----5----5------|
Pink Floyd - Arnold Layne (2)
Pink Floyd - Arnold Layne (2).gp4