Pink Floyd - Astronomy Domine (2)

Pink Floyd



Title: Astronomy Domine
Album: The Piper at the Gates of Dawn
Artist: Pink Floyd
Author: Syd Barrett

Track 1: Guitar 1
E|----------------|-------------------------------------------------------------|-------------------------------------------------------------|
B|----------------|-------------------------------------------------------------|-------------------------------------------------------------|
G|-%-------%------|-------------------------------------------------------------|-------------------------------------------------------------|
D|-%-------%------|-------------------------------------------------------------|-------------------------------------------------------------|
A|----------------|-------------------------------------------------------------|-------------------------------------------------------------|
E|----------------|-0----0----0----0----0----0----0----0----0----0----0----0----|-0----0----0----0----0----0----0----0----0----0----0----0----|

E|-------------------------------------------------------------|-------------------------------------------------------------|
B|-------------------------------------------------------------|-------------------------------------------------------------|
G|-------------------------------------------------------------|-------------------------------------------------------------|
D|-------------------------------------------------------------|-------------------------------------------------------------|
A|-------------------------------------------------------------|-------------------------------------------------------------|
E|-0----0----0----0----0----0----0----0----0----0----0----0----|-0----0----0----0----0----0----0----0----0----0----0----0----|

E|-------------------------------------------------------------|-------------------------------------------------------------|
B|-------------------------------------------------------------|-------------------------------------------------------------|
G|-------------------------------------------------------------|-------------------------------------------------------------|
D|-------------------------------------------------------------|-------------------------------------------------------------|
A|-------------------------------------------------------------|-------------------------------------------------------------|
E|-0----0----0----0----0----0----0----0----0----0----0----0----|-0----0----0----0----0----0----0----0----0----0----0----0----|

E|-------------------------------------------------------------|-------------------------------------------------------------|
B|-------------------------------------------------------------|-------------------------------------------------------------|
G|-------------------------------------------------------------|-------------------------------------------------------------|
D|-------------------------------------------------------------|-------------------------------------------------------------|
A|-------------------------------------------------------------|-------------------------------------------------------------|
E|-0----0----0----0----0----0----0----0----0----0----0----0----|-0----0----0----0----0----0----0----0----0----0----0----0----|

E|-------------------------------------------------------------|-------------------------------|
B|-------------------------------------------------------------|-------------------------------|
G|-------------------------------------------------------------|-------------------------------|
D|-------------------------------------------------------------|-------------------------------|
A|-------------------------------------------------------------|-------------------------------|
E|-0----0----0----0----0----0----0----0----0----0----0----0----|-0----0----0----0----0----0----|

E|-------------------------------------------------------------|-----------------------------------------------------|
B|-------------------------------------------------------------|-----------------------------------------------------|
G|-1----1----1----1----1----1----1----1----1----1----1----1----|-1----1----1----1----1----1----1----1----1----1------|
D|-2----2----2----2----2----2----2----2----2----2----2----2----|-2----2----2----2----2----2----2----2----2----2------|
A|-2----2----2----2----2----2----2----2----2----2----2----2----|-2----2----2----2----2----2----2----2----2----2------|
E|-0----0----0----0----0----0----0----0----0----0----0----0----|-0----0----0----0----0----0----0----0----0----0------|

E|-11----------------------------|-3---------------------------------------3-------------------|
B|-11----------------------------|-3---------------------------------------3-------------------|
G|-12----------------------------|-4---------------------------------------4-------------------|
D|-13------13---13---13---13-----|-5---------------------------------------5-------------------|
A|-13------13---13---13---13-----|-5----5----5----5----5----5----5----5----5----5----5----5----|
E|-11------11---11---11---11-----|-3----3----3----3----3----3----3----3----3----3----3----3----|

E|-3------------------------3----3---------3-------------------|----------------------------------------------------------------|
B|-3------------------------3----3---------3-------------------|----------------------------------------------------------------|
G|-4------------------------4----4---------4----5---------5----|----------------------------------------------6------------%----|
D|-5------------------------5----5---------5----6---------6----|-7----7----7----7----7----7----7----7----7----7------------%----|
A|-5----5----5----5----5----5----5----5----5----6----6----6----|-7----7----7----7----7----7----7----7----7----7----7---7--------|
E|-3----3----3----3----3----3----3----3----3----4----4----4----|-5----5----5----5----5----5----5----5----5----5----5---5--------|

E|-------------------------------------------------------------5----------------5---|
B|-------------------------------------------------------------5----------------5---|
G|-6--------6---%---6---X---X---X---X---X---X---6--------6-----6----------------6---|
D|-7--------7---%---7---X---X---X---X---X---X---7--------7-----7----X---X---X---X---|
A|-7----7---7-------7---X---X---X---X---X---X---7----7---7-----7----X---X---X---X---|
E|-5----5---5-------5---X---X---X---X---X---X---5----5---5-----5----X---X---X---X---|

E|-12-----12---12---12---12---12---12---12---12---12---|-12-----------------------12---------------------------------|
B|-12-----12---12---12---12---12---12---12---12---12---|-12-----------------------12---------------------------------|
G|-13-----13---13---13---13---13---13---13---13---13---|-13-----------------------13---------------------------------|
D|-14-----14---14---14---14---14---14---14---14---14---|-14-----------------------14---------------------------------|
A|-14--------------------14----------------------------|-14---14---14---14---14---14---14---14---14------------------|
E|-12--------------------------------------------------|-12---12---12---12---12---12---12---12---12---10---10---10---|

E|------11----------------------------------------------------|-3------------------------3----------------------------------|
B|-----------11---11---11-------------------------------------|-3------------------------3----------------------------------|
G|-----------11---13---13--13---11----------------------------|-4------------------------4----------------------------------|
D|-13-------------------------------13---13---13--------------|-5------------------------5----------------------------------|
A|-------------------------------------------------13---13----|-5----5----5----5----5----5----5----5----5----5----5----5----|
E|-------------------------------------------------11---11----|-3----3----3----3----3----3----3----3----3----3----3----3----|

E|-3---------3----3---------3----3---------3----4----4----4----|-9----9----9----8----8----8----7----7----7----6----6----6----|
B|-3---------3----3---------3----3---------3----4----4----4----|-10---10---10---9----9----9----8----8----8----7----7----7----|
G|-4---------4----4---------4----4---------4----5----5----5----|-9----9----9----8----8----8----7----7----7----6----6----6----|
D|-5---------5----5---------5----5---------5----6----6----6----|-------------------------------------------------------------|
A|-5----5----5----5----5----5----5----5----5----6----6----6----|-------------------------------------------------------------|
E|-3----3----3----3----3----3----3----3----3----4----4----4----|-------------------------------------------------------------|

E|------5----5---------4----4---------3----3----2------|-12--------12---11--------11---10--------10---9---------9----|
B|-----------6--------------5--------------4----3------|------10---10--------9----9---------8----8---------7----7----|
G|-5----5---------4---------4----3---------3----2------|-----------9--------------8--------------7--------------6----|
D|-----------------------------------------------------|-------------------------------------------------------------|
A|-----------------------------------------------------|-------------------------------------------------------------|
E|-----------------------------------------------------|-------------------------------------------------------------|

E|-8---------8----7---------7----6---------6----5---------5----|-2-------2------2-------|
B|------6----6---------5----5---------4----4---------3----3----|-3-------3------3-------|
G|-----------5--------------4--------------3--------------2----|-2-------2------2----%--|
D|-------------------------------------------------------------|-0-------0------0----%--|
A|-------------------------------------------------------------|------------------------|
E|-------------------------------------------------------------|------------------------|

E|-3-------|-4-------------------|---------|-12---12---12---12---12---12---12---12---12---12---12---12---|
B|-4-------|-5-------------------|---------|-------------------------------------------------------------|
G|-3-------|-4----%------%-------|-%-------|-------------------------------------------------------------|
D|-0-------|-0----%------%-------|-%-------|-------------------------------------------------------------|
A|---------|---------------------|---------|-------------------------------------------------------------|
E|---------|---------------------|---------|-------------------------------------------------------------|

E|-12---12---12---12---12---12---12---12---12---12---12---12---|-12---12---12---12---12---12---12---12---12---12---12--------|
B|-------------------------------------------------------------|-------------------------------------------------------------|
G|-------------------------------------------------------------|--------------------------------------------------------%----|
D|-------------------------------------------------------------|--------------------------------------------------------%----|
A|-------------------------------------------------------------|-------------------------------------------------------------|
E|-------------------------------------------------------------|-------------------------------------------------------------|

E|----------------11-----|-3------3------10-----10-----|-3-------------------------------------------|
B|-----------------------|-----------------------------|--------3----------3-----3---------4----5----|
G|-%-------%-------------|-----------------------------|-------------5-----5----------5--------------|
D|-%-------%-------------|-----------------------------|---------------------------------------------|
A|-----------------------|-----------------------------|---------------------------------------------|
E|-----------------------|-----------------------------|---------------------------------------------|

E|-5---------------------------------------------------|---------------------------------5-------------------|
B|------5----------------------------------------------|--------------------------------------5----0---------|
G|-----------------------------------------------------|-----------------5-----5------------------------0----|
D|------------7----7----7----7----7----7----7-----5----|-5----5----7----------------7------------------------|
A|-----------------------------------------------------|-----------------------------------------------------|
E|-----------------------------------------------------|-----------------------------------------------------|

E|-------------------------------|-------------------------------------|-------------------------------------------------|
B|-9-------9------9----9----9----|-9------9------9------9----9----9----|-9----8----8-----8-----8-------------------------|
G|-9-------9------9----9----9----|-9------9------9------9----9----9----|-9----8----8-----8-----8-------------------------|
D|-9-------9------9----9----9----|-9------9------9------9----9----9----|-9----8----8-----8-----8-----8----8----8----8----|
A|-7-------7------7----7----7----|-7------7------7------7----7----7----|-7----6----6-----6-----6-----6----6----6----6----|
E|-0-------0------0----0----0----|-0------0------0---------------------|-------------------------------------------------|

E|----------------------------------------------15----3----|-------------------------------------------------------------|
B|----------------------------------------------------3----|------3------------------------------------------------------|
G|---------------------------------------------------------|-%---------5----5----5----5----5-----------------------------|
D|-8----8----8----8----8----8----8----8----8---------------|-%----------------------------------5----5----5----5----5----|
A|-6----6----6----6----6----6----6----6----6---------------|-------------------------------------------------------------|
E|---------------------------------------------------------|-------------------------------------------------------------|

E|--------------------------5---------6----5---------6----5----|-5----5-----5--------------------|
B|--------------------------5---------6----5---------6----5----|-5----5-----5--------------------|
G|-------------------------------%--------------%--------------|------6-----6------%-------------|
D|-5----5----5----5----5---------%--------------%--------------|------7-----7------%------7------|
A|-------------------------------------------------------------|---------------------------------|
E|-------------------------------------------------------------|---------------------------------|

E|-----------------|---------------------------------|-----------------------------------------|
B|-----------------|---------------------------------|-----------------------------------------|
G|-----------------|--------------------------9------|-11----9----7----------------------------|
D|-7-------7-------|------9-----9------9-------------|-----------------9----7----9------9------|
A|-----------------|-7-------------------------------|-----------------------------------------|
E|-----------------|-0-------------------------------|-----------------------------------------|

E|-11----14---11---------------------------------------|-------------------------------X---X---X---X---0----X---X---X---X---3----|
B|-11----14---11---------11---11---11---11---11---11---|------11---11---11---11---11---X---X---X---X---0----X---X---X---X---3----|
G|------------------13---13---13---13---13---13---13---|-13---13---13---13---13---13---X---X---X---X---0----X---X---X---X---4----|
D|-----------------------------------------------------|-------------------------------X---X---X---X---0----X---X---X---X---5----|
A|-----------------------------------------------------|--------------------------------------------------------------------5----|
E|-----------------------------------------------------|--------------------------------------------------------------------3----|

E|-3------------------------------------3----3----3----|-3-----------------------------|
B|-3---------------------------------------------------|-------3----3------------------|
G|-4---------------------------------------------------|--------------------%-----5----|
D|-5---------------------------------------------------|--------------------%----------|
A|-5------5----5----5----5----5----5-------------------|-------------------------------|
E|-3------3----3----3----3----3----3-------------------|-------------------------------|

E|-----------------------------5---------------|------5------5---------5----------------|
B|-------5---------------5----------5----------|-5----------------5---------5-----------|
G|-7----------%----6---------------------6-----|---------------------------------6------|
D|------------%--------------------------------|----------------------------------------|
A|---------------------------------------------|----------------------------------------|
E|---------------------------------------------|----------------------------------------|

E|---------------------------------------------------------|---------------------------------------------|
B|---------------------------------------------------------|-----------------------9---------------------|
G|-----------------------------------------9----9----------|-------9----------9----------9----10----10---|
D|-9----9----9----9----9----9----9----9---------------9----|-9-----------9-------------------------------|
A|-7----7----7----7----7----7----7----7--------------------|---------------------------------------------|
E|---------------------------------------------------------|---------------------------------------------|

E|---------------------------------------------|---------------------------------------------|
B|---------------------------------------------|-----------------------8----8----8----8------|
G|-10---9----9----8----8-----8------%-----8----|-8-----8----8-----8----8----8----8----8------|
D|----------------------------------%-----8----|-8-----8----8-----8----8----8----8----8------|
A|----------------------------------------6----|-6-----6----6-----6----6----6----6----6------|
E|---------------------------------------------|---------------------------------------------|

E|-3-----------------------------------------------------------|------3---------3---------3----------------------------------|
B|-3-----------------------------------------------------------|------3---------3---------3----------------------------------|
G|-4----------------------------------4------------------------|------4---------4---------4----4----4----4----5----5----5----|
D|-5---------------------------------------5----5--------------|-5---------5---------5---------5----5----5----6----6----6----|
A|-5----5----5----5----5----5----5-------------------5----5----|-5---------5---------5---------5----5----5----6----6----6----|
E|-3----3----3----3----3----3----3-----------------------------|-3---------3---------3---------3----3----3----4----4----4----|

E|-5---------------------------------------------------|---------------------------------------------|
B|-5---------------------------------------------------|---------------------------------------------|
G|-6---------------------------------------------------|-5-----7----7------7-----7----7----7----7----|
D|-7------7----7----7----7----7----7----7----7----7----|---------------------------------------------|
A|-7---------------------------------------------------|---------------------------------------------|
E|-5---------------------------------------------------|---------------------------------------------|

E|-----------------------------------------|----------------------------------------------18---18---18---|
B|-----------------------------------------|-------------------------------------------------------------|
G|-9------9------9-----9----9----9----9----|-9----9----9----9----9----9----9----9----%-------------------|
D|-9------9------9-----9----9----9----9----|-9----9----9----9----9----9----9---------%-------------------|
A|-7------7------7-----7----7----7----7----|-7----7----7----7----7----7----7-----------------------------|
E|-0------0------0-----0----0----0----0----|-------------------------------------------------------------|

E|-18----3---------18----3-----18--------3----3----|-3----5----3-------------------------|
B|-------------------------------------------------|-------------------------------------|
G|------------%---------------------%--------------|-------------------------------------|
D|------------%---------------------%--------------|-------------------------------------|
A|-------------------------------------------------|----------------5------5------5------|
E|-------------------------------------------------|----------------3------3------3------|

E|--------3----5----3----5----3----5----3----5----5----|-5----9----9----9----8----8----8----7----7----7----6----6----|
B|-----------------------------------------------------|-------------------------------------------------------------|
G|-----------------------------------------------------|-------------------------------------------------------------|
D|-----------------------------------------------------|-------------------------------------------------------------|
A|-5---------------------------------------------------|-------------------------------------------------------------|
E|-3---------------------------------------------------|-------------------------------------------------------------|

E|-6----5----5----5----4----4----4----3----3----2----------|-17---17---17---16---16---16---15---15---15---14---14---14---|
B|----------------------------------------------3----------|-17---17---17---16---16---16---15---15---15---14---14---14---|
G|----------------------------------------------------%----|-------------------------------------------------------------|
D|----------------------------------------------------%----|-------------------------------------------------------------|
A|---------------------------------------------------------|-------------------------------------------------------------|
E|---------------------------------------------------------|-------------------------------------------------------------|

E|-13---13---13---12---12---12---11---11---11---10---10---10---|-10-----------------------2----------|
B|-13---13---13---12---12---12---11---11---11---10---10---10---|-10----------------3------3----------|
G|-------------------------------------------------------------|-------%----2-------------2-----%----|
D|-------------------------------------------------------------|-------%------------------0-----%----|
A|-------------------------------------------------------------|-------------------------------------|
E|-------------------------------------------------------------|-------------------------------------|

E|-1--------------------1----------|-2--------------2----------|-1--------------------1----------|
B|-3-------------3------3----------|-3--------------3----------|-3-------------3------3----------|
G|-2------2-------------2-----%----|-2------2-------2-----%----|-2------2-------------2-----%----|
D|-0--------------------0-----%----|-0--------------0-----%----|-0--------------------0-----%----|
A|---------------------------------|---------------------------|---------------------------------|
E|---------------------------------|---------------------------|---------------------------------|

E|-2--------------2----------|-1--------------------1----------|-2--------------------1------|
B|-3--------------3----------|-3-------------3------3----------|-3-------------3-------------|
G|-2------2-------2-----%----|-2------2-------------2-----%----|-2------2--------------------|
D|-0--------------0-----%----|-0--------------------0-----%----|-0---------------------------|
A|---------------------------|---------------------------------|-----------------------------|
E|---------------------------|---------------------------------|-----------------------------|

E|-1-------------1-------------|-2-------|-2-------|
B|-3--------------------3------|-3-------|-3-------|
G|-2------2--------------------|-2-------|-2-------|
D|-0---------------------------|-0-------|-0-------|
A|-----------------------------|---------|---------|
E|-----------------------------|---------|---------|
Pink Floyd - Astronomy Domine (2)
Pink Floyd - Astronomy Domine (2).gp4