Pink Floyd - Atom Heart Mother

Pink Floyd



Title: Atom Heart Mother
Album: Atom Heart Mother
Artist: Pink Floyd
Author: Gilmour, Mason, Waters, Wright, Geesin

Track 1: Guitar1
E|-0------0------|-7------7------|-5------5------|-0------0------|-0------0------|-7------7------|
B|-8------8------|-8------8------|-6------6------|-1------1------|-8------8------|-8------8------|
G|-0------0------|-7------7------|-5------5------|-0------0------|-0------0------|-7------7------|
D|-9------9------|-9------9------|-7------7------|-2------2------|-9------9------|-9------9------|
A|-7------7------|-10-----10-----|-8------8------|-3------3------|-7------7------|-10-----10-----|
E|-7------7------|-10-----10-----|-8------8------|-3------3------|-7------7------|-10-----10-----|

E|-5------5------|-0------0------|-0------0------|-7------7------|-9------9------|-11-----11-----|
B|-6------6------|-1------1------|-8------8------|-8------8------|-10-----14-----|-12-----16-----|
G|-5------5------|-0------0------|-0------0------|-7------7------|-9------14-----|-11-----16-----|
D|-7------7------|-2------2------|-9------9------|-9------9------|-11-----14-----|-13-----16-----|
A|-8------8------|-3------3------|-7------7------|-10-----10-----|-12-----16-----|-14-----18-----|
E|-8------8------|-3------3------|-7------7------|-10-----10-----|-12-----12-----|-14-----14-----|

E|-0------0------|-7------7------|-5------5------|-5------5------|-5------5------|-5------5------|
B|-8------8------|-8------8------|-6------6------|-6------6------|-6------6------|-6------6------|
G|-0------0------|-7------7------|-5------5------|-5------5------|-5------5------|-5------5------|
D|-9------9------|-9------9------|-7------7------|-7------7------|-7------7------|-7------7------|
A|-7------7------|-10-----10-----|-8------8------|-8------8------|-8------8------|-8------8------|
E|-7------7------|-10-----10-----|-8------8------|-8------8------|-8------8------|-8------8------|

E|-0-------|-0-------|-0-------|-0-------|-0-------|---------|---------|---------|---------|
B|-8-------|-8-------|-8-------|-8-------|-8-------|---------|---------|---------|---------|
G|-0-------|-0-------|-0-------|-0-------|-0-------|-%-------|-%-------|-%-------|-%-------|
D|-9-------|-9-------|-9-------|-9-------|-9-------|-%-------|-%-------|-%-------|-%-------|
A|-7-------|-7-------|-7-------|-7-------|-7-------|---------|---------|---------|---------|
E|-7-------|-7-------|-7-------|-7-------|-7-------|---------|---------|---------|---------|

E|---------|---------|---------|---------|---------|---------|---------|-0------0------|
B|---------|---------|---------|---------|---------|---------|---------|-8------8------|
G|-%-------|-%-------|-%-------|-%-------|-%-------|-%-------|-%-------|-0------0------|
D|-%-------|-%-------|-%-------|-%-------|-%-------|-%-------|-%-------|-9------9------|
A|---------|---------|---------|---------|---------|---------|---------|-7------7------|
E|---------|---------|---------|---------|---------|---------|---------|-7------7------|

E|-7------7------|-5------5------|-0------0------|-0------0------|-7------7------|-5------5------|
B|-8------8------|-6------6------|-1------1------|-8------8------|-8------8------|-6------6------|
G|-7------7------|-5------5------|-0------0------|-0------0------|-7------7------|-5------5------|
D|-9------9------|-7------7------|-2------2------|-9------9------|-9------9------|-7------7------|
A|-10-----10-----|-8------8------|-3------3------|-7------7------|-10-----10-----|-8------8------|
E|-10-----10-----|-8------8------|-3------3------|-7------7------|-10-----10-----|-8------8------|

E|-0------0------|-0------0------|-7------7------|-9------9------|-11-----11-----|-0------0------|
B|-1------1------|-8------8------|-8------8------|-10-----14-----|-12-----16-----|-8------8------|
G|-0------0------|-0------0------|-7------7------|-9------14-----|-11-----16-----|-0------0------|
D|-2------2------|-9------9------|-9------9------|-11-----14-----|-13-----16-----|-9------9------|
A|-3------3------|-7------7------|-10-----10-----|-12-----16-----|-14-----18-----|-7------7------|
E|-3------3------|-7------7------|-10-----10-----|-12-----12-----|-14-----14-----|-7------7------|

E|-7------7------|-5------5------|-5------5------|-5------5------|-5------5------|-0-------|
B|-8------8------|-6------6------|-6------6------|-6------6------|-6------6------|-8-------|
G|-7------7------|-5------5------|-5------5------|-5------5------|-5------5------|-0-------|
D|-9------9------|-7------7------|-7------7------|-7------7------|-7------7------|-9-------|
A|-10-----10-----|-8------8------|-8------8------|-8------8------|-8------8------|-7-------|
E|-10-----10-----|-8------8------|-8------8------|-8------8------|-8------8------|-7-------|

E|-0-------|-0-------|-0-------|-0-------|---------|---------|---------|---------|---------|
B|-8-------|-8-------|-8-------|-8-------|---------|---------|---------|---------|---------|
G|-0-------|-0-------|-0-------|-0-------|-%-------|-%-------|-%-------|-%-------|-%-------|
D|-9-------|-9-------|-9-------|-9-------|-%-------|-%-------|-%-------|-%-------|-%-------|
A|-7-------|-7-------|-7-------|-7-------|---------|---------|---------|---------|---------|
E|-7-------|-7-------|-7-------|-7-------|---------|---------|---------|---------|---------|

E|---------|---------|---------|---------|---------|---------|---------|---------|---------|
B|---------|---------|---------|---------|---------|---------|---------|---------|---------|
G|-%-------|-%-------|-%-------|-%-------|-%-------|-%-------|-%-------|-%-------|-%-------|
D|-%-------|-%-------|-%-------|-%-------|-%-------|-%-------|-%-------|-%-------|-%-------|
A|---------|---------|---------|---------|---------|---------|---------|---------|---------|
E|---------|---------|---------|---------|---------|---------|---------|---------|---------|

E|---------|---------|---------|---------|---------|---------|---------|---------|---------|
B|---------|---------|---------|---------|---------|---------|---------|---------|---------|
G|-%-------|-%-------|-%-------|-%-------|-%-------|-%-------|-%-------|-%-------|-%-------|
D|-%-------|-%-------|-%-------|-%-------|-%-------|-%-------|-%-------|-%-------|-%-------|
A|---------|---------|---------|---------|---------|---------|---------|---------|---------|
E|---------|---------|---------|---------|---------|---------|---------|---------|---------|

E|---------|---------|---------|---------|---------|---------|---------|-----------12-----12----|
B|---------|---------|---------|---------|---------|---------|---------|-------0----------------|
G|-%-------|-%-------|-%-------|-%-------|-%-------|-%-------|-%-------|-%----------------------|
D|-%-------|-%-------|-%-------|-%-------|-%-------|-%-------|-%-------|-%----------------------|
A|---------|---------|---------|---------|---------|---------|---------|------------------------|
E|---------|---------|---------|---------|---------|---------|---------|------------------------|

E|-12------------|-------------3------3-----3-----|-5-----------------------|---------|
B|---------12----|-12----12-----------------------|---------5---------------|---------|
G|---------------|----------%------------------%--|------%-------%--5-------|-5-------|
D|---------------|----------%------------------%--|------%-------%----------|---------|
A|---------------|--------------------------------|-------------------------|---------|
E|---------------|--------------------------------|-------------------------|---------|

E|-3-------7----3----|-------7-------|-------7----------------|---------7-----|-4-------------|
B|-------------------|-3-------------|------------7------7----|-7-------------|---------4-----|
G|-------------------|---------------|-7----------------------|---------------|---------------|
D|-------------------|---------------|------------------------|---------------|---------------|
A|-------------------|---------------|------------------------|---------------|---------------|
E|-------------------|---------------|------------------------|---------------|---------------|

E|---------------|---------|-----3-------3-----|-3-------------|--------3------|---------|
B|--------4------|-3-------|-------------------|---------4-----|---------------|-1-------|
G|-4-------------|---------|-3-----------------|---------------|-3-------------|---------|
D|---------------|---------|-------------------|---------------|---------------|---------|
A|---------------|---------|-------------------|---------------|---------------|---------|
E|---------------|---------|-------------------|---------------|---------------|---------|

E|-2------------------|-12------14----|-15------|-17------|-17-----19----20----|-19------19------19------|
B|-------4-----0------|---------------|---------|---------|--------------------|-------------------------|
G|--------------------|---------------|---------|---------|--------------------|--------------%-------%--|
D|--------------------|---------------|---------|---------|--------------------|--------------%-------%--|
A|--------------------|---------------|---------|---------|--------------------|-------------------------|
E|--------------------|---------------|---------|---------|--------------------|-------------------------|

E|-19-----19------19----17----|-19------19---19------|-19------|-16------|-16-----------16----|
B|----------------------------|----------------------|---------|---------|-------16-----------|
G|-----------%----------------|------------------%---|---------|---------|--------------------|
D|-----------%----------------|------------------%---|---------|---------|--------------------|
A|----------------------------|----------------------|---------|---------|--------------------|
E|----------------------------|----------------------|---------|---------|--------------------|

E|---------|------------------13----13--|-15------15-----15------15-|-15-----15-----|
B|-15------|-15-----16----16------------|---------------------------|---------------|
G|---------|----------------------------|-------------%-------%-----|---------------|
D|---------|----------------------------|-------------%-------%-----|---------------|
A|---------|----------------------------|---------------------------|---------------|
E|---------|----------------------------|---------------------------|---------------|

E|-17------|-19------19----19----|-19------------|--------14----15----|-17------|-17------|
B|---------|---------------------|---------17----|-17-----------------|---------|---------|
G|---------|------------------%--|---------------|--------------------|---------|---------|
D|---------|------------------%--|---------------|--------------------|---------|---------|
A|---------|---------------------|---------------|--------------------|---------|---------|
E|---------|---------------------|---------------|--------------------|---------|---------|

E|-15------------|--------15-----|-19------22----|-22-----19-----|-16------------|--------16-----|
B|---------15----|-15------------|---------------|---------------|---------16----|-16------------|
G|---------------|---------------|---------------|---------------|---------------|---------------|
D|---------------|---------------|---------------|---------------|---------------|---------------|
A|---------------|---------------|---------------|---------------|---------------|---------------|
E|---------------|---------------|---------------|---------------|---------------|---------------|

E|---------------------------------------------|-------------------|---------------|
B|-15----15------------------------------------|---------15--------|---------------|
G|----------%------%-------%---------%---------|-------------%-----|-------12------|
D|----------%--15--%---12--%---15----%---13----|-12----------%-----|-13------------|
A|---------------------15------17--------15----|-13------13--------|---------------|
E|-------------17------------------------------|-------------------|---------------|

E|---------|---------------|---------------|-------12------|-12------|-12------|-12------|
B|-11------|-------10------|-------12------|---------------|---------|---------|---------|
G|---------|-9-------------|-11------------|-9-------------|---------|---------|---------|
D|---------|---------------|---------------|---------------|---------|---------|---------|
A|---------|---------------|---------------|---------------|---------|---------|---------|
E|---------|---------------|---------------|---------------|---------|---------|---------|

E|---------|---------|---------|---------|---------|---------|---------|---------|---------|
B|---------|---------|---------|---------|---------|---------|---------|---------|---------|
G|-%-------|-%-------|-%-------|-%-------|-%-------|-%-------|-%-------|-%-------|-%-------|
D|-%-------|-%-------|-%-------|-%-------|-%-------|-%-------|-%-------|-%-------|-%-------|
A|---------|---------|---------|---------|---------|---------|---------|---------|---------|
E|---------|---------|---------|---------|---------|---------|---------|---------|---------|

E|---------|---------|---------|---------|---------|---------|---------|---------|---------|
B|---------|---------|---------|---------|---------|---------|---------|---------|---------|
G|-%-------|-%-------|-%-------|-%-------|-%-------|-%-------|-%-------|-%-------|-%-------|
D|-%-------|-%-------|-%-------|-%-------|-%-------|-%-------|-%-------|-%-------|-%-------|
A|---------|---------|---------|---------|---------|---------|---------|---------|---------|
E|---------|---------|---------|---------|---------|---------|---------|---------|---------|

E|---------|---------|---------|---------|---------|---------|---------|---------|---------|
B|---------|---------|---------|---------|---------|---------|---------|---------|---------|
G|-%-------|-%-------|-%-------|-%-------|-%-------|-%-------|-%-------|-%-------|-%-------|
D|-%-------|-%-------|-%-------|-%-------|-%-------|-%-------|-%-------|-%-------|-%-------|
A|---------|---------|---------|---------|---------|---------|---------|---------|---------|
E|---------|---------|---------|---------|---------|---------|---------|---------|---------|

E|---------|---------|---------|---------|---------|---------|---------|---------|---------|
B|---------|---------|---------|---------|---------|---------|---------|---------|---------|
G|-%-------|-%-------|-%-------|-%-------|-%-------|-%-------|-%-------|-%-------|-%-------|
D|-%-------|-%-------|-%-------|-%-------|-%-------|-%-------|-%-------|-%-------|-%-------|
A|---------|---------|---------|---------|---------|---------|---------|---------|---------|
E|---------|---------|---------|---------|---------|---------|---------|---------|---------|

E|---------|---------|---------|---------|---------|---------|---------|---------|---------|
B|---------|---------|---------|---------|---------|---------|---------|---------|---------|
G|-%-------|-%-------|-%-------|-%-------|-%-------|-%-------|-%-------|-%-------|-%-------|
D|-%-------|-%-------|-%-------|-%-------|-%-------|-%-------|-%-------|-%-------|-%-------|
A|---------|---------|---------|---------|---------|---------|---------|---------|---------|
E|---------|---------|---------|---------|---------|---------|---------|---------|---------|

E|---------|---------|---------|---------|---------|---------|---------|---------|---------|
B|---------|---------|---------|---------|---------|---------|---------|---------|---------|
G|-%-------|-%-------|-%-------|-%-------|-%-------|-%-------|-%-------|-%-------|-%-------|
D|-%-------|-%-------|-%-------|-%-------|-%-------|-%-------|-%-------|-%-------|-%-------|
A|---------|---------|---------|---------|---------|---------|---------|---------|---------|
E|---------|---------|---------|---------|---------|---------|---------|---------|---------|

E|---------|---------|---------|---------|---------|---------|---------|---------|---------|
B|---------|---------|---------|---------|---------|---------|---------|---------|---------|
G|-%-------|-%-------|-%-------|-%-------|-%-------|-%-------|-%-------|-%-------|-%-------|
D|-%-------|-%-------|-%-------|-%-------|-%-------|-%-------|-%-------|-%-------|-%-------|
A|---------|---------|---------|---------|---------|---------|---------|---------|---------|
E|---------|---------|---------|---------|---------|---------|---------|---------|---------|

E|---------|---------|---------|---------|---------|---------|---------|---------|---------|
B|---------|---------|---------|---------|---------|---------|---------|---------|---------|
G|-%-------|-%-------|-%-------|-%-------|-%-------|-%-------|-%-------|-%-------|-%-------|
D|-%-------|-%-------|-%-------|-%-------|-%-------|-%-------|-%-------|-%-------|-%-------|
A|---------|---------|---------|---------|---------|---------|---------|---------|---------|
E|---------|---------|---------|---------|---------|---------|---------|---------|---------|

E|---------|---------|---------|---------|---------|---------|---------|---------|---------|
B|---------|---------|---------|---------|---------|---------|---------|---------|---------|
G|-%-------|-%-------|-%-------|-%-------|-%-------|-%-------|-%-------|-%-------|-%-------|
D|-%-------|-%-------|-%-------|-%-------|-%-------|-%-------|-%-------|-%-------|-%-------|
A|---------|---------|---------|---------|---------|---------|---------|---------|---------|
E|---------|---------|---------|---------|---------|---------|---------|---------|---------|

E|---------|---------|---------|---------|---------|---------|---------|---------|---------|
B|---------|---------|---------|---------|---------|---------|---------|---------|---------|
G|-%-------|-%-------|-%-------|-%-------|-%-------|-%-------|-%-------|-%-------|-%-------|
D|-%-------|-%-------|-%-------|-%-------|-%-------|-%-------|-%-------|-%-------|-%-------|
A|---------|---------|---------|---------|---------|---------|---------|---------|---------|
E|---------|---------|---------|---------|---------|---------|---------|---------|---------|

E|---------|---------|---------|---------|---------|---------|---------|---------|---------|
B|---------|---------|---------|---------|---------|---------|---------|---------|---------|
G|-%-------|-%-------|-%-------|-%-------|-%-------|-%-------|-%-------|-%-------|-%-------|
D|-%-------|-%-------|-%-------|-%-------|-%-------|-%-------|-%-------|-%-------|-%-------|
A|---------|---------|---------|---------|---------|---------|---------|---------|---------|
E|---------|---------|---------|---------|---------|---------|---------|---------|---------|

E|---------|---------|---------|---------|---------|---------|---------|---------|---------|
B|---------|---------|---------|---------|---------|---------|---------|---------|---------|
G|-%-------|-%-------|-%-------|-%-------|-%-------|-%-------|-%-------|-%-------|-%-------|
D|-%-------|-%-------|-%-------|-%-------|-%-------|-%-------|-%-------|-%-------|-%-------|
A|---------|---------|---------|---------|---------|---------|---------|---------|---------|
E|---------|---------|---------|---------|---------|---------|---------|---------|---------|

E|---------|---------|---------|---------|---------|---------|---------|---------|---------|
B|---------|---------|---------|---------|---------|---------|---------|---------|---------|
G|-%-------|-%-------|-%-------|-%-------|-%-------|-%-------|-%-------|-%-------|-%-------|
D|-%-------|-%-------|-%-------|-%-------|-%-------|-%-------|-%-------|-%-------|-%-------|
A|---------|---------|---------|---------|---------|---------|---------|---------|---------|
E|---------|---------|---------|---------|---------|---------|---------|---------|---------|

E|---------|---------|---------|---------|---------|---------|---------|---------|---------|
B|---------|---------|---------|---------|---------|---------|---------|---------|---------|
G|-%-------|-%-------|-%-------|-%-------|-%-------|-%-------|-%-------|-%-------|-%-------|
D|-%-------|-%-------|-%-------|-%-------|-%-------|-%-------|-%-------|-%-------|-%-------|
A|---------|---------|---------|---------|---------|---------|---------|---------|---------|
E|---------|---------|---------|---------|---------|---------|---------|---------|---------|

E|---------|---------|---------|---------|---------|---------|---------|---------|---------|
B|---------|---------|---------|---------|---------|---------|---------|---------|---------|
G|-%-------|-%-------|-%-------|-%-------|-%-------|-%-------|-%-------|-%-------|-%-------|
D|-%-------|-%-------|-%-------|-%-------|-%-------|-%-------|-%-------|-%-------|-%-------|
A|---------|---------|---------|---------|---------|---------|---------|---------|---------|
E|---------|---------|---------|---------|---------|---------|---------|---------|---------|

E|---------|---------|---------|---------|---------|---------|---------|---------|---------|
B|---------|---------|---------|---------|---------|---------|---------|---------|---------|
G|-%-------|-%-------|-%-------|-%-------|-%-------|-%-------|-%-------|-%-------|-%-------|
D|-%-------|-%-------|-%-------|-%-------|-%-------|-%-------|-%-------|-%-------|-%-------|
A|---------|---------|---------|---------|---------|---------|---------|---------|---------|
E|---------|---------|---------|---------|---------|---------|---------|---------|---------|

E|---------|---------|---------|---------|---------|---------|---------|---------|---------|
B|---------|---------|---------|---------|---------|---------|---------|---------|---------|
G|-%-------|-%-------|-%-------|-%-------|-%-------|-%-------|-%-------|-%-------|-%-------|
D|-%-------|-%-------|-%-------|-%-------|-%-------|-%-------|-%-------|-%-------|-%-------|
A|---------|---------|---------|---------|---------|---------|---------|---------|---------|
E|---------|---------|---------|---------|---------|---------|---------|---------|---------|

E|---------|---------|---------|---------|---------|---------|---------|---------|---------|
B|---------|---------|---------|---------|---------|---------|---------|---------|---------|
G|-%-------|-%-------|-%-------|-%-------|-%-------|-%-------|-%-------|-%-------|-%-------|
D|-%-------|-%-------|-%-------|-%-------|-%-------|-%-------|-%-------|-%-------|-%-------|
A|---------|---------|---------|---------|---------|---------|---------|---------|---------|
E|---------|---------|---------|---------|---------|---------|---------|---------|---------|

E|---------|---------|---------|---------|---------|---------|---------|---------|---------|
B|---------|---------|---------|---------|---------|---------|---------|---------|---------|
G|-%-------|-%-------|-%-------|-%-------|-%-------|-%-------|-%-------|-%-------|-%-------|
D|-%-------|-%-------|-%-------|-%-------|-%-------|-%-------|-%-------|-%-------|-%-------|
A|---------|---------|---------|---------|---------|---------|---------|---------|---------|
E|---------|---------|---------|---------|---------|---------|---------|---------|---------|

E|---------|--------15-----|-15------|-------15---13----------|--------------------------------------------|
B|---------|---------------|---------|------------------------|-----------15---13--------13---15---15------|
G|-%-------|-%-------------|---------|-%---------------15-----|-15----%-------------15----------------%----|
D|-%-------|-%-------------|---------|-%----------------------|-------%-------------------------------%----|
A|---------|---------------|---------|------------------------|--------------------------------------------|
E|---------|---------------|---------|------------------------|--------------------------------------------|

E|---------|---------|---------|---------|-------10---8----6-------------------|------3----6---------3------|
B|-15------|-15------|---------|---------|----------------------8----6---------|-6--------------------------|
G|---------|---------|-%-------|-%-------|-%------------------------------%----|----------------%-----------|
D|---------|---------|-%-------|-%-------|-%------------------------------%----|----------------%-----------|
A|---------|---------|---------|---------|-------------------------------------|----------------------------|
E|---------|---------|---------|---------|-------------------------------------|----------------------------|

E|-------10---8----6----8----10---8----|-13---10------10---|---------|---------|---------|
B|-------------------------------------|-------------------|---------|---------|---------|
G|-%-----------------------------------|-------------------|-%-------|-%-------|-%-------|
D|-%-----------------------------------|-------------------|-%-------|-%-------|-%-------|
A|-------------------------------------|-------------------|---------|---------|---------|
E|-------------------------------------|-------------------|---------|---------|---------|

E|---------|-------10---13---15---13-------------|----------------------------------|
B|---------|---------------------------15---13---|------13------15---15------15-----|
G|-%-------|-%-----------------------------------|-15--------%----------%-----------|
D|-%-------|-%-----------------------------------|-----------%----------%-----------|
A|---------|-------------------------------------|----------------------------------|
E|---------|-------------------------------------|----------------------------------|

E|------------------------|-----------------10---8----6----8----|-10------|-10----------------|
B|-15---------------------|------11-----------------------------|---------|-------------------|
G|-------%-----------12---|-%---------%-------------------------|---------|------%-------%----|
D|-------%------15--------|-%---------%-------------------------|---------|------%-------%----|
A|------------------------|-------------------------------------|---------|-------------------|
E|------------------------|-------------------------------------|---------|-------------------|

E|---------|---------|-------13---15---18--------15----|-15------|-------15-----13--------|
B|---------|---------|----------------------18---------|---------|-------------------15---|
G|-%-------|-%-------|-%-------------------------------|---------|-%----------------------|
D|-%-------|-%-------|-%-------------------------------|---------|-%----------------------|
A|---------|---------|---------------------------------|---------|------------------------|
E|---------|---------|---------------------------------|---------|------------------------|

E|-13--------10--------------6----8----|-10-------------------------|---------|---------|
B|------13--------------8--------------|-----------11--------8------|-8-------|---------|
G|-----------------10------------------|------%---------10----------|---------|-%-------|
D|-------------------------------------|------%---------------------|---------|-%-------|
A|-------------------------------------|----------------------------|---------|---------|
E|-------------------------------------|----------------------------|---------|---------|

E|---------22------22------|-22------22------22------22------22------22------22------22------|
B|-------------------------|-----------------------------------------------------------------|
G|-%------------%-------%--|------%-------%-------%-------%-------%-------%-------%-------%--|
D|-%------------%-------%--|------%-------%-------%-------%-------%-------%-------%-------%--|
A|-------------------------|-----------------------------------------------------------------|
E|-------------------------|-----------------------------------------------------------------|

E|-22------22------21------21------20------20------18-----------|------18---15------|
B|---------------------------------------------------------20---|-20----------------|
G|------%-------%-------%-------%-------%-------%-------%-------|-------------------|
D|------%-------%-------%-------%-------%-------%-------%-------|-------------------|
A|--------------------------------------------------------------|-------------------|
E|--------------------------------------------------------------|-------------------|

E|-15----------------|-----------------------------------------|-----------10---8-------6----8-------6-----|
B|---------15---13---|------13---15--------15------------------|-11---13-----------------------------------|
G|-------------------|-15------------%----------%---------12---|--------------------%------------%---------|
D|-------------------|---------------%----------%----15--------|--------------------%------------%---------|
A|-------------------|-----------------------------------------|-------------------------------------------|
E|-------------------|-----------------------------------------|-------------------------------------------|

E|-6-------------|---------10--------|-------------------------------6---------|-------------------------|
B|---------------|--------------13---|-11-----------------------8---------8----|-8-----------------------|
G|--------%------|-%-----------------|------%----10---%----10------------------|---------7---5---3---5---|
D|--------%------|-%-------12--------|------%---------%------------------------|-------------------------|
A|---------------|---------12--------|-----------------------------------------|-------------------------|
E|---------------|-------------------|-----------------------------------------|-------------------------|

E|------------------------------------------------------|------------------------------------------------------|
B|------2---------2---------2---------2---------2-------|-----2---------2---------2---------2---------2--------|
G|-%---------%---------%---------%---------%---------%--|-%--------%---------%---------%---------%---------%---|
D|-%---------%---------%---------%---------%---------%--|-%--------%---------%---------%---------%---------%---|
A|------------------------------------------------------|------------------------------------------------------|
E|------------------------------------------------------|------------------------------------------------------|

E|---------------------------|-------------------|---------|-10---8----6----8----10---13---15---13---|
B|-1-------------------------|-------------------|---------|-----------------------------------------|
G|-----3---0-----3----0------|-0----%-------%----|-%-------|-----------------------------------------|
D|---------------------------|------%-------%----|-%-------|-----------------------------------------|
A|---------------------------|-------------------|---------|-----------------------------------------|
E|---------------------------|-------------------|---------|-----------------------------------------|

E|-15--------------------------------------|-------------------|----------------------10---|
B|-----------15---13--------15-------------|------11-----------|--------------11-----------|
G|------15-------------15--------%---------|-12--------12------|-12----%----------%--------|
D|-------------------------------%----15---|-------------------|-------%----------%--------|
A|-----------------------------------------|-------------------|---------------------------|
E|-----------------------------------------|-------------------|---------------------------|

E|-8----6----8---------8-----13---10---|-10--------8----6----------6---------|---------|
B|-------------------------------------|---------------------8----------8----|-8-------|
G|----------------%--------------------|------%------------------------------|---------|
D|----------------%--------------------|------%------------------------------|---------|
A|-------------------------------------|-------------------------------------|---------|
E|-------------------------------------|-------------------------------------|---------|

E|----------------------------|-----------1---------8---------8---------|------6----------------6---------|
B|--------3----1---------1----|-3--------------3----8---------8---------|-8----6------6----8---------8----|
G|-%----------------3---------|------%--------------5----%---------%----|---------------------------------|
D|-%--------------------------|------%-------------------%----10---%----|------8--------------------------|
A|----------------------------|-----------------------------------------|---------------------------------|
E|----------------------------|-----------------------------------------|---------------------------------|

E|---------|--------0----8-----0----|-8-----0----8-----0----8-----|------7---------7----------------|
B|-8-------|------------------------|-----------------------------|---------------------------------|
G|---------|-%----------------------|-----------------------------|-7---------%---------%----7------|
D|---------|-%----------------------|-----------------------------|-----------%---------%-----------|
A|---------|------------------------|-----------------------------|---------------------------------|
E|---------|------------------------|-----------------------------|---------------------------------|

E|--------------------|--------13-----|-13----11------11------11------9-------------|
B|--------------------|--------13-----|-13------------------------------------9-----|
G|-7------%------%----|-%-------------|------------%-------%-------%-------%--------|
D|--------%------%----|-%------15-----|-15---------%-------%-------%-------%--------|
A|--------------------|---------------|---------------------------------------------|
E|--------------------|---------------|---------------------------------------------|

E|-----------------------4---------|---------|-----------------------|---------|---------------|
B|-9----------------6--------------|-6-------|-----------------------|---------|---------------|
G|-------%-----8--------------%----|---------|-%------3--5------5----|-5-------|-5------%------|
D|-------%--------------------%----|---------|-%---------------------|---------|--------%------|
A|---------------------------------|---------|-----------------------|---------|---------------|
E|---------------------------------|---------|-----------------------|---------|---------------|

E|---------|---------|---------|---------|-----------------------|---------|---------|
B|---------|---------|---------|---------|--------1--3------3----|-3-------|-3-------|
G|-%-------|-%-------|-%-------|-%-------|-%---------------------|---------|---------|
D|-%-------|-%-------|-%-------|-%-------|-%---------------------|---------|---------|
A|---------|---------|---------|---------|-----------------------|---------|---------|
E|---------|---------|---------|---------|-----------------------|---------|---------|

E|---------|---------------------|---------|---------|---------|---------|---------|
B|-3-------|-3-------------------|---------|---------|---------|---------|---------|
G|---------|----%-------%-----%--|-%-------|-%-------|-%-------|-%-------|-%-------|
D|---------|----%-------%-----%--|-%-------|-%-------|-%-------|-%-------|-%-------|
A|---------|---------------------|---------|---------|---------|---------|---------|
E|---------|---------------------|---------|---------|---------|---------|---------|

E|---------|---------|---------|---------|---------|---------|---------|---------|---------|
B|---------|---------|---------|---------|---------|---------|---------|---------|---------|
G|-%-------|-%-------|-%-------|-%-------|-%-------|-%-------|-%-------|-%-------|-%-------|
D|-%-------|-%-------|-%-------|-%-------|-%-------|-%-------|-%-------|-%-------|-%-------|
A|---------|---------|---------|---------|---------|---------|---------|---------|---------|
E|---------|---------|---------|---------|---------|---------|---------|---------|---------|

E|---------|---------|---------|---------|---------|---------|---------------|---------|
B|---------|---------|---------|---------|---------|---------|--------3------|-3-------|
G|-%-------|-%-------|-%-------|-%-------|-%-------|-%-------|-%------4------|-4-------|
D|-%-------|-%-------|-%-------|-%-------|-%-------|-%-------|-%------5------|-5-------|
A|---------|---------|---------|---------|---------|---------|---------------|---------|
E|---------|---------|---------|---------|---------|---------|--------3------|-3-------|

E|---------|---------|---------------|---------|---------|---------|---------------|
B|-3-------|-3-------|--------1------|-1-------|-1-------|-1-------|---------------|
G|-4-------|-4-------|-%------2------|-2-------|-2-------|-2-------|-%------0------|
D|-5-------|-5-------|-%------3------|-3-------|-3-------|-3-------|-%------2------|
A|---------|---------|---------------|---------|---------|---------|--------3------|
E|-3-------|-3-------|--------1------|-1-------|-1-------|-1-------|--------0------|

E|---------|---------|---------|-2------2-------2------2-------|-2------2-------2------2-------|
B|---------|---------|---------|-4------4-------4------4-------|-4------4-------4------4-------|
G|-0-------|-0-------|-0-------|-4------4---%---4------4---%---|-4------4---%---4------4---%---|
D|-2-------|-2-------|-2-------|-4------4---%---4------4---%---|-4------4---%---4------4---%---|
A|-3-------|-3-------|-3-------|-6------6-------6------6-------|-6------6-------6------6-------|
E|-0-------|-0-------|-0-------|-7------7-------7------7-------|-7------7-------7------7-------|

E|-2------2-------2------2-------|-2------2-------2------2-------|-0------0------|-7------7------|
B|-4------4-------4------4-------|-4------4-------4------4-------|-8------8------|-8------8------|
G|-4------4---%---4------4---%---|-4------4---%---4------4---%---|-0------0------|-7------7------|
D|-4------4---%---4------4---%---|-4------4---%---4------4---%---|-9------9------|-9------9------|
A|-6------6-------6------6-------|-6------6-------6------6-------|-7------7------|-10-----10-----|
E|-7------7-------7------7-------|-7------7-------7------7-------|-7------7------|-10-----10-----|

E|-5------5------|-0------0------|-0------0------|-7------7------|-5------5------|-0------0------|
B|-6------6------|-1------1------|-8------8------|-8------8------|-6------6------|-1------1------|
G|-5------5------|-0------0------|-0------0------|-7------7------|-5------5------|-0------0------|
D|-7------7------|-2------2------|-9------9------|-9------9------|-7------7------|-2------2------|
A|-8------8------|-3------3------|-7------7------|-10-----10-----|-8------8------|-3------3------|
E|-8------8------|-3------3------|-7------7------|-10-----10-----|-8------8------|-3------3------|

E|-0------0------|-7------7------|-9------9------|-11-----11-----|-0------0------|-7------7------|
B|-8------8------|-8------8------|-10-----14-----|-12-----16-----|-8------8------|-8------8------|
G|-0------0------|-7------7------|-9------14-----|-11-----16-----|-0------0------|-7------7------|
D|-9------9------|-9------9------|-11-----14-----|-13-----16-----|-9------9------|-9------9------|
A|-7------7------|-10-----10-----|-12-----16-----|-14-----18-----|-7------7------|-10-----10-----|
E|-7------7------|-10-----10-----|-12-----12-----|-14-----14-----|-7------7------|-10-----10-----|

E|-5------5------|-5------5------|-5------5------|-5------5------|-0-------|-0-------|
B|-6------6------|-6------6------|-6------6------|-6------6------|-8-------|-8-------|
G|-5------5------|-5------5------|-5------5------|-5------5------|-0-------|-0-------|
D|-7------7------|-7------7------|-7------7------|-7------7------|-9-------|-9-------|
A|-8------8------|-8------8------|-8------8------|-8------8------|-7-------|-7-------|
E|-8------8------|-8------8------|-8------8------|-8------8------|-7-------|-7-------|

E|-0-------|-0-------|-0-------|---------|---------|---------|---------|---------|---------|
B|-8-------|-8-------|-8-------|---------|---------|---------|---------|---------|---------|
G|-0-------|-0-------|-0-------|-%-------|-%-------|-%-------|-%-------|-%-------|-%-------|
D|-9-------|-9-------|-9-------|-%-------|-%-------|-%-------|-%-------|-%-------|-%-------|
A|-7-------|-7-------|-7-------|---------|---------|---------|---------|---------|---------|
E|-7-------|-7-------|-7-------|---------|---------|---------|---------|---------|---------|

E|---------|---------|---------|---------|---------|---------|---------|---------|---------|
B|---------|---------|---------|---------|---------|---------|---------|---------|---------|
G|-%-------|-%-------|-%-------|-%-------|-%-------|-%-------|-%-------|-%-------|-%-------|
D|-%-------|-%-------|-%-------|-%-------|-%-------|-%-------|-%-------|-%-------|-%-------|
A|---------|---------|---------|---------|---------|---------|---------|---------|---------|
E|---------|---------|---------|---------|---------|---------|---------|---------|---------|

E|---------|---------|---------|---------|---------|---------|---------|---------|---------|
B|---------|---------|---------|---------|---------|---------|---------|---------|---------|
G|-%-------|-%-------|-%-------|-%-------|-%-------|-%-------|-%-------|-%-------|-%-------|
D|-%-------|-%-------|-%-------|-%-------|-%-------|-%-------|-%-------|-%-------|-%-------|
A|---------|---------|---------|---------|---------|---------|---------|---------|---------|
E|---------|---------|---------|---------|---------|---------|---------|---------|---------|

E|---------|---------|---------|---------|---------|---------|---------|-7---12-----12----------|
B|---------|---------|---------|---------|---------|---------|---------|------------------------|
G|-%-------|-%-------|-%-------|-%-------|-%-------|-%-------|-%-------|------------------11----|
D|-%-------|-%-------|-%-------|-%-------|-%-------|-%-------|-%-------|------------------------|
A|---------|---------|---------|---------|---------|---------|---------|------------------------|
E|---------|---------|---------|---------|---------|---------|---------|------------------------|

E|--------------------|---------------|---------|-7-------|-7-------------|-------------------0----|
B|-------12-----------|-------10------|-10------|---------|-------8-------|-------7----------------|
G|-11----------12-----|---------------|---------|---------|---------------|-7------------7---------|
D|--------------------|-10------------|---------|---------|---------------|------------------------|
A|--------------------|---------------|---------|---------|---------------|------------------------|
E|--------------------|---------------|---------|---------|---------------|------------------------|

E|--------7------|----------------------------|----------------------------|---------|
B|-7-------------|--------0---------4---------|-0---------0---------4------|-3-------|
G|---------------|-8-----------6---------6----|----------------6-----------|---------|
D|---------------|----------------------------|------6---------------------|---------|
A|---------------|----------------------------|----------------------------|---------|
E|---------------|----------------------------|----------------------------|---------|

E|---------|------------------------|---------------------------------|-------5-------|
B|---------|------------------------|------1----4-----4---------------|---------------|
G|-%-------|-%------0----1----3-----|-3--------------------5----3-----|-2-------------|
D|-%-------|-%----------------------|---------------------------------|---------------|
A|---------|------------------------|---------------------------------|---------------|
E|---------|------------------------|---------------------------------|---------------|

E|-------7-------|-12------14----|-15------|-17------|-17-----19----20----|-19------19------19------|
B|-0-------------|---------------|---------|---------|--------------------|-------------------------|
G|---------------|---------------|---------|---------|--------------------|--------------%-------%--|
D|---------------|---------------|---------|---------|--------------------|--------------%-------%--|
A|---------------|---------------|---------|---------|--------------------|-------------------------|
E|---------------|---------------|---------|---------|--------------------|-------------------------|

E|-19-----19------19----17----|-19------19---19------|-19------|-16------|-16-----------16----|
B|----------------------------|----------------------|---------|---------|-------16-----------|
G|-----------%----------------|------------------%---|---------|---------|--------------------|
D|-----------%----------------|------------------%---|---------|---------|--------------------|
A|----------------------------|----------------------|---------|---------|--------------------|
E|----------------------------|----------------------|---------|---------|--------------------|

E|---------|------------------13----13--|-15------15-----15------15-|-15-----15-----|
B|-15------|-15-----16----16------------|---------------------------|---------------|
G|---------|----------------------------|-------------%-------%-----|---------------|
D|---------|----------------------------|-------------%-------%-----|---------------|
A|---------|----------------------------|---------------------------|---------------|
E|---------|----------------------------|---------------------------|---------------|

E|-17------|-19------19----19----|------------------12----|-12-----14----15----|-17------|
B|---------|---------------------|------------------------|--------------------|---------|
G|---------|------------------%--|-4---%------%-----------|--------------------|---------|
D|---------|------------------%--|-----%------%-----------|--------------------|---------|
A|---------|---------------------|------------------------|--------------------|---------|
E|---------|---------------------|------------------------|--------------------|---------|

E|-17------|-15------------|--------15-----|-19------19--------|--------19-------------|
B|---------|---------15----|-15------------|-------------------|-----------------------|
G|---------|---------------|---------------|-------------%-----|-%----------%------%---|
D|---------|---------------|---------------|-------------%-----|-%----------%------%---|
A|---------|---------------|---------------|-------------------|-----------------------|
E|---------|---------------|---------------|-------------------|-----------------------|

E|-16------------|--------16-----|-----------------------|----------------------13----|
B|---------16----|-16------------|-15-----15-------------|-15-------------16----------|
G|---------------|---------------|------------%------%---|-----%------%---------------|
D|---------------|---------------|------------%------%---|-----%------%---------------|
A|---------------|---------------|-----------------------|----------------------------|
E|---------------|---------------|-----------------------|----------------------------|

E|-15------|-15------|-17------|-19------|-0------0------|-7------7------|-5------5------|
B|---------|---------|---------|---------|-8------8------|-8------8------|-6------6------|
G|---------|---------|---------|---------|-0------0------|-7------7------|-5------5------|
D|---------|---------|---------|---------|-9------9------|-9------9------|-7------7------|
A|---------|---------|---------|---------|-7------7------|-10-----10-----|-8------8------|
E|---------|---------|---------|---------|-7------7------|-10-----10-----|-8------8------|

E|-0------0------|-0------0------|-7------7------|-5------5------|-0------0------|-0------0------|
B|-1------1------|-8------8------|-8------8------|-6------6------|-1------1------|-8------8------|
G|-0------0------|-0------0------|-7------7------|-5------5------|-0------0------|-0------0------|
D|-2------2------|-9------9------|-9------9------|-7------7------|-2------2------|-9------9------|
A|-3------3------|-7------7------|-10-----10-----|-8------8------|-3------3------|-7------7------|
E|-3------3------|-7------7------|-10-----10-----|-8------8------|-3------3------|-7------7------|

E|-7------7------|-9------9------|-11-----11-----|-0------0------|-7------7------|-5------7------|
B|-8------8------|-10-----14-----|-12-----16-----|-8------8------|-8------8------|-7------8------|
G|-7------7------|-9------14-----|-11-----16-----|-0------0------|-7------7------|-6------7------|
D|-9------9------|-11-----14-----|-13-----16-----|-9------9------|-9------9------|-7------9------|
A|-10-----10-----|-12-----16-----|-14-----18-----|-7------7------|-10-----10-----|-9------10-----|
E|-10-----10-----|-12-----12-----|-14-----14-----|-7------7------|-10-----10-----|-9------10-----|

E|-0------10-----|-11-----11-----|-11-----7------|-0------0------|-7------7------|-5------5------|
B|-8------11-----|-12-----12-----|-12-----8------|-8------8------|-8------8------|-6------6------|
G|-0------10-----|-11-----11-----|-11-----7------|-0------0------|-7------7------|-5------5------|
D|-9------12-----|-13-----13-----|-13-----9------|-9------9------|-9------9------|-7------7------|
A|-7------13-----|-14-----14-----|-14-----10-----|-7------7------|-10-----10-----|-8------8------|
E|-7------13-----|-14-----14-----|-14-----10-----|-7------7------|-10-----10-----|-8------8------|

E|-0------0------|-0------0------|-7------7------|-5------5------|-0------0------|-0------0------|
B|-1------1------|-8------8------|-8------8------|-6------6------|-1------1------|-8------8------|
G|-0------0------|-0------0------|-7------7------|-5------5------|-0------0------|-0------0------|
D|-2------2------|-9------9------|-9------9------|-7------7------|-2------2------|-9------9------|
A|-3------3------|-7------7------|-10-----10-----|-8------8------|-3------3------|-7------7------|
E|-3------3------|-7------7------|-10-----10-----|-8------8------|-3------3------|-7------7------|

E|-7------7------|-9------9------|-11-----11-----|-0------0------|-7------7------|-5------5------|
B|-8------8------|-10-----14-----|-12-----16-----|-8------8------|-8------8------|-6------6------|
G|-7------7------|-9------14-----|-11-----16-----|-0------0------|-7------7------|-5------5------|
D|-9------9------|-11-----14-----|-13-----16-----|-9------9------|-9------9------|-7------7------|
A|-10-----10-----|-12-----16-----|-14-----18-----|-7------7------|-10-----10-----|-8------8------|
E|-10-----10-----|-12-----12-----|-14-----14-----|-7------7------|-10-----10-----|-8------8------|

E|-5------5------|-5------5------|-5------5------|-0-------|-0-------|-0-------|-0-------|
B|-6------6------|-6------6------|-6------6------|-8-------|-8-------|-8-------|-8-------|
G|-5------5------|-5------5------|-5------5------|-0-------|-0-------|-0-------|-0-------|
D|-7------7------|-7------7------|-7------7------|-9-------|-9-------|-9-------|-9-------|
A|-8------8------|-8------8------|-8------8------|-7-------|-7-------|-7-------|-7-------|
E|-8------8------|-8------8------|-8------8------|-7-------|-7-------|-7-------|-7-------|

E|-0-------|---------|---------|---------|---------|---------|---------|
B|-8-------|---------|---------|---------|---------|---------|---------|
G|-0-------|-%-------|-%-------|-%-------|-%-------|-%-------|-%-------|
D|-9-------|-%-------|-%-------|-%-------|-%-------|-%-------|-%-------|
A|-7-------|---------|---------|---------|---------|---------|---------|
E|-7-------|---------|---------|---------|---------|---------|---------|
Pink Floyd - Atom Heart Mother
Pink Floyd - Atom Heart Mother.gp3