Pink Floyd - Breaathe In The Air

Pink Floyd



Title: Breathe in the Air
Album: Dark Side of the Moon
Artist: Pink Floyd
Author: Waters, Gilmour, Wright, Mason

Track 1: Guitar
E|---------|-------------------------|--------------------|-------------------------|
B|-0-------|-0-----------0-----------|-2-----------2------|-2-----------3-----2-----|
G|-0-------|-0------0----------0-----|-2------2-----------|--------2----------------|
D|-4-------|-4-----------------------|-2------------------|-------------------------|
A|-2-------|-2-----------------------|-0------------------|-------------------------|
E|-0-------|-0-----------------------|--------------------|-------------------------|

E|---------------|-------------0-----------|---------------------------------|-------------------------------------|
B|--------0------|-0------0----------0-----|-2---------------2---------------|-3--------------2----2---------------|
G|--------0------|-0-----------------------|------------2---------------2----|-----------2-------------------0-----|
D|-2------4------|-4-----------------------|-------2---------------2---------|------2-------------------2----------|
A|--------2------|-2-----------------------|---------------------------------|-------------------------------------|
E|--------0------|-0-----------------------|---------------------------------|-------------------------------------|

E|---------------|-------------0-----------|-----------------------------|-------------------------------------|
B|--------0------|-0-----------------0-----|-2---------------2-----------|-3----2---------2----2----2----------|
G|--------0------|-0-----------------------|-2----------2----------------|-----------2-------------------2-----|
D|-2------4------|-4------2----------------|-2-----2----------------2----|-------------------------------------|
A|--------2------|-2-----------------------|-0---------------------------|-------------------------------------|
E|--------0------|-0-----------------------|-----------------------------|-------------------------------------|

E|--------0------|-0---------------------------|--------------------|-------------------------|
B|--------0------|-0-----------0---------------|-2-----------2------|-2-----------3-----2-----|
G|--------0------|-0-----------------0----2----|--------2-----------|--------2----------------|
D|-2------4------|-4------2--------------------|--------------------|-------------------------|
A|--------2------|-2---------------------------|--------------------|-------------------------|
E|--------0------|-0---------------------------|--------------------|-------------------------|

E|--------0------|-0-----------------------|---------------------------0---------|------0-----------------|
B|--------0------|-0-----------0-----------|-----------------10-------------12---|-----------10-----------|
G|--------0------|-0-----------------0-----|-2-----2----9---------0--------------|-0---------------0------|
D|-2------4------|-4------2----------------|-------------------------------------|------------------------|
A|--------2------|-2-----------------------|-------------------------------------|------------------------|
E|---------------|-------------------------|-------------------------------------|------------------------|

E|--------0------|-0-----------0----------|-------9---------------9---------|-----------7-------------------------|
B|--------0------|-0----------------0-----|---------------------------------|----------------10---10--------10----|
G|--------0------|-0------0---------------|-9-----------6----9---------0----|-0----9-------------------9----------|
D|-2------4------|-4----------------------|---------------------------------|-------------------------------------|
A|---------------|------------------------|---------------------------------|-------------------------------------|
E|---------------|------------------------|---------------------------------|-------------------------------------|

E|---------------|-------------0-----------|------------------------|--------------------|
B|--------0------|-0-----------------0-----|-2---------------2------|-3------2-----------|
G|--------0------|-0------0----------------|------------2-----------|--------------2-----|
D|-2------4------|-4-----------------------|-------2----------------|--------------------|
A|--------2------|-2-----------------------|------------------------|--------------------|
E|---------------|-------------------------|------------------------|--------------------|

E|--------0------|-0-----------------------|--------------------|--------------------|
B|--------0------|-0-----------0-----------|-------------2------|-3-----2------------|
G|--------0------|-0-----------------0-----|--------------------|-------------2------|
D|-2------4------|-4------2----------------|--------2-----------|--------------------|
A|--------2------|-2-----------------------|-0------------------|--------------------|
E|--------0------|-0-----------------------|--------------------|--------------------|

E|-0-------|-0-----------0-----------|-2-------|-2-----------2-----------|-5-------5---------|
B|-0-------|-0-----------------1-----|-3-------|-3-----------------3-----|-5-------5---------|
G|-0-------|-0------0----------------|-2-------|-2------2----------------|-5-------5----5----|
D|-2-------|-2-----------------------|-4-------|-4-----------------------|-7-------7---------|
A|-3-------|-3-----------------------|-2-------|-2-----------------------|-8-------8---------|
E|---------|-------------------------|---------|-------------------------|-------------------|

E|-5------5----------------|-3-------|---------------|---------|---------------|-------------------|
B|-------------5-----------|-3-------|---------------|---------|---------------|-------------------|
G|-------------------5-----|-0-------|-10-----8------|-9-------|-9------9------|-2-------2---------|
D|-------------------------|-0-------|---------------|---------|--------9------|-2-------2----2----|
A|-------------------------|---------|---------------|---------|---------------|-------------------|
E|-------------------------|---------|---------------|---------|---------------|-------------------|

E|---------------------------------|--------0------|-0------------------|--------------------|
B|-3----------2----2---------------|--------0------|-0------------------|-------------2------|
G|----------------------2----------|--------0------|-0------7-----9-----|-2------------------|
D|-------2-------------------2-----|-2------4------|-4------7-----9-----|-2------2-----------|
A|---------------------------------|---------------|--------------------|--------------------|
E|---------------------------------|---------------|--------------------|--------------------|

E|--------------------|--------0------|-0-----------------0-----|---------|--------------------|
B|-3------2-----------|--------0------|-0-----------3-----0-----|-2-------|-3------2-----------|
G|--------------2-----|--------0------|-0-----------2-----------|-2-------|--------------2-----|
D|--------------------|-2------4------|-4------2----------------|---------|--------------------|
A|--------------------|--------2------|-2-----------------------|---------|--------------------|
E|--------------------|---------------|-------------------------|---------|--------------------|

E|--------0------|-0------0---------0-----|--------------------|--------------------|
B|--------0------|-0------0---------------|-------------2------|-3------2-----------|
G|--------0------|-0------0---------------|-2------------------|--------------2-----|
D|-2------4------|-4------4----2----------|-2------2-----------|--------------------|
A|---------------|------------------------|--------------------|--------------------|
E|---------------|------------------------|--------------------|--------------------|

E|-0-------|-0-------|-2-------|-2-----------2-----------|-5-------|-5-------|-3-------|
B|-0-------|-0-------|-3-------|-3------3----------3-----|-5-------|-5-------|-3-------|
G|-0-------|-0-------|-2-------|-2-----------------------|-5-------|-5-------|-0-------|
D|-2-------|-2-------|-4-------|-4-----------------------|-7-------|-7-------|-0-------|
A|-3-------|-3-------|-2-------|-2-----------------------|-8-------|-8-------|---------|
E|---------|---------|---------|-------------------------|---------|---------|---------|

E|---------------|--------0------|-0-----------------------|------------------------|
B|---------------|--------0------|-0-----------3-----------|-2------2----2----------|
G|-10-----8------|-9------0------|-0-----------------2-----|------------------------|
D|---------------|--------4------|-4------2----------------|-------------------2----|
A|---------------|--------2------|-2-----------------------|------------------------|
E|---------------|--------0------|-0-----------------------|------------------------|

E|---------------------------------|---------|---------------|-------------5---------------|
B|-3----------2----2---------------|---------|-0-------------|-----------------------------|
G|----------------------2----------|---------|-------0-------|-2----------------------0----|
D|------2--------------------2-----|-2-------|---------------|--------7----------7---------|
A|---------------------------------|---------|---------------|-----------------------------|
E|---------------------------------|---------|---------------|-----------------------------|

E|-7---------------5-----3-----|--------0------|-0-----------------0-----|------------------------|
B|-----------------------------|--------0------|-0-----------3-----0-----|-2---------------2------|
G|------------0----------------|--------0------|-0------0----2-----------|-2----------2-----------|
D|-------7---------------------|--------4------|-4-----------------------|-------2----------------|
A|-----------------------------|--------2------|-2-----------------------|------------------------|
E|-----------------------------|-0-------------|-------------------------|------------------------|

E|---------------------------------|--------0------|-0-----------0-----------|-----------------------------|
B|-3----------2----2---------------|--------0------|-0-----------------0-----|-2---------------2-----------|
G|------2---------------2----2-----|--------0------|-0-----------------------|------------2----------------|
D|---------------------------------|-2-------------|--------2----------------|-------2----------------2----|
A|---------------------------------|---------------|-------------------------|-----------------------------|
E|---------------------------------|---------------|-------------------------|-----------------------------|

E|-------------------------|-0-------|-0-----------0-----------|-2-------|-2-----------2-----------|
B|-3-----------2-----------|-0-------|-0-----------------1-----|-3-------|-3-----------------3-----|
G|-------------------2-----|-0-------|-0------0----------------|-2-------|-2------4----------------|
D|--------2----------------|-2-------|-2-----------------------|-4-------|-4-----------------------|
A|-------------------------|-3-------|-3-----------------------|-2-------|-2-----------------------|
E|-------------------------|---------|-------------------------|---------|-------------------------|

E|-5-------|-5-----------5-----------|-3-------|---------------|---------|---------|
B|-5-------|-5-----------------5-----|-3-------|---------------|---------|---------|
G|-5-------|-5------5----------------|-0-------|-10-----8------|-9-------|-9-------|
D|-7-------|-7-----------------------|-0-------|---------------|---------|---------|
A|-8-------|-8-----------------------|---------|---------------|---------|---------|
E|---------|-------------------------|---------|---------------|---------|---------|
Pink Floyd - Breaathe In The Air
Pink Floyd - Breaathe In The Air.gp4