Pink Floyd - Comfortably Numb (5)

Pink Floyd



Title: Comfortably Numb
Album: 
Artist: 
Author: Pink Floyd

Track 1: Synth arranged for guitar
E|-2-------|-2-------|-2-------|---------|--------------------|--------------------------|
B|-3-------|-3-------|-3-------|-2-------|-3-----------3------|-2------2-----2-----2-----|
G|-4-------|-4-------|-4-------|-2-------|-4-----------4------|-4------4-----4-----4-----|
D|-4-------|-4-------|-4-------|-2-------|-5-----------5------|-4------4-----4-----4-----|
A|-2-------|-2-------|-2-------|-0-------|-5-----------5------|-2------2-----2-----2-----|
E|---------|---------|---------|---------|-3------2----0------|--------------------------|

E|--------------------|-----------------------------------|--------------------|-------------------------------|
B|-2------2----2------|-2-----2-----2-----2-----3----2----|-3-----------3------|-2-----2-----2-----2-----2-----|
G|-4------4----4------|-2-----2-----2-----2-----2----2----|-4-----------4------|-4-----4-----4-----4-----4-----|
D|-4------4----4------|-2-----2-----2-----2-----2----2----|-5-----------5------|-4-----4-----4-----4-----4-----|
A|-2------2----2------|-0-----0-----0-----0-----0----0----|-5-----------5------|-2-----2-----2-----2-----2-----|
E|--------------------|-----------------------------------|-3------2----0------|-------------------------------|

E|--------------------|-------------------|--------------------|-2------2------|-5---------------5---------------5---------------5---------------|
B|-2------2------2----|-2-------3----2----|-3-----------3------|-3------3------|-----7---5-----------7---5-----------7---5-----------7---5-------|
G|-4------4------4----|-2-------2----2----|-4-----------4------|-2------2------|-------------7---------------7---------------7---------------7---|
D|-4------4------4----|-2-------2----2----|-5-----------5------|-4------4------|-----------------------------------------------------------------|
A|-2------2------2----|-0-------0----0----|-5-----------5------|-2------2------|-----------------------------------------------------------------|
E|--------------------|-------------------|-3------2----0------|---------------|-----------------------------------------------------------------|

E|-5---------------5---------------5---------------5---------------|-5---------------5---------------5---------------5---------------|
B|-----5---------------5---------------5---------------5-----------|-----7---5-----------7---5-----------7---5-----------7---5-------|
G|---------7---6-----------7---6-----------7---6-----------7---6---|-------------7---------------7---------------7---------------7---|
D|-----------------------------------------------------------------|-----------------------------------------------------------------|
A|-----------------------------------------------------------------|-----------------------------------------------------------------|
E|-----------------------------------------------------------------|-----------------------------------------------------------------|

E|-0---------------0---------------0---------------0---------------|-3---------------3---------------3---------------3---------------|
B|-----2---0-----------2---0-----------2---0-----------2---0-------|-----5---3-----------5---3-----------5---3-----------5---3-------|
G|-------------2---------------2---------------2---------------2---|-------------5---------------5---------------5---------------5---|
D|-----------------------------------------------------------------|-----------------------------------------------------------------|
A|-----------------------------------------------------------------|-----------------------------------------------------------------|
E|-----------------------------------------------------------------|-----------------------------------------------------------------|

E|-3---------------3---------------3---------------3---------------|-3---------------3---------------3---------------3---------------|
B|-----3---------------3---------------3---------------3-----------|-----5---3-----------5---3-----------5---3-----------5---3-------|
G|---------5---4-----------5---4-----------5---4-----------5---4---|-------------5---------------5---------------5---------------5---|
D|-----------------------------------------------------------------|-----------------------------------------------------------------|
A|-----------------------------------------------------------------|-----------------------------------------------------------------|
E|-----------------------------------------------------------------|-----------------------------------------------------------------|

E|-3---------------3---------------3---------------3---------------|-5---------------5---------------5---------------5---------------|
B|-----3---------------3---------------3---------------3-----------|-----7---5-----------7---5-----------7---5-----------7---5-------|
G|---------5---4-----------5---4-----------5---4-----------5---4---|-------------7---------------7---------------7---------------7---|
D|-----------------------------------------------------------------|-----------------------------------------------------------------|
A|-----------------------------------------------------------------|-----------------------------------------------------------------|
E|-----------------------------------------------------------------|-----------------------------------------------------------------|

E|-5---------------5---------------5---------------5---------------|-5---------------5---------------5---------------5---------------|
B|-----5---------------5---------------5---------------5-----------|-----7---5-----------7---5-----------7---5-----------7---5-------|
G|---------7---6-----------7---6-----------7---6-----------7---6---|-------------7---------------7---------------7---------------7---|
D|-----------------------------------------------------------------|-----------------------------------------------------------------|
A|-----------------------------------------------------------------|-----------------------------------------------------------------|
E|-----------------------------------------------------------------|-----------------------------------------------------------------|

E|-0---------------0---------------0---------------0---------------|-3---------------3---------------3---------------3---------------|
B|-----2---0-----------2---0-----------2---0-----------2---0-------|-----5---3-----------5---3-----------5---3-----------5---3-------|
G|-------------2---------------2---------------2---------------2---|-------------5---------------5---------------5---------------5---|
D|-----------------------------------------------------------------|-----------------------------------------------------------------|
A|-----------------------------------------------------------------|-----------------------------------------------------------------|
E|-----------------------------------------------------------------|-----------------------------------------------------------------|

E|-3---------------3---------------3---------------3---------------|-3---------------3---------------3---------------3---------------|
B|-----3---------------3---------------3---------------3-----------|-----5---3-----------5---3-----------5---3-----------5---3-------|
G|---------5---4-----------5---4-----------5---4-----------5---4---|-------------5---------------5---------------5---------------5---|
D|-----------------------------------------------------------------|-----------------------------------------------------------------|
A|-----------------------------------------------------------------|-----------------------------------------------------------------|
E|-----------------------------------------------------------------|-----------------------------------------------------------------|

E|-3---------------3---------------3---------------3---------------|--------------------5-----------|
B|-----3---------------3---------------3---------------3-----------|-5----3---2---0-----2-----------|
G|---------5---4-----------5---4-----------5---4-----------5---4---|---------------------------%----|
D|-----------------------------------------------------------------|---------------------------%----|
A|-----------------------------------------------------------------|--------------------------------|
E|-----------------------------------------------------------------|--------------------------------|

E|---------|---------|---------|---------|---------|---------|---------|---------|---------|
B|---------|---------|---------|---------|---------|---------|---------|---------|---------|
G|-%-------|-%-------|-%-------|-%-------|-%-------|-%-------|-%-------|-%-------|-%-------|
D|-%-------|-%-------|-%-------|-%-------|-%-------|-%-------|-%-------|-%-------|-%-------|
A|---------|---------|---------|---------|---------|---------|---------|---------|---------|
E|---------|---------|---------|---------|---------|---------|---------|---------|---------|

E|---------|---------|---------|---------|---------|---------|---------|---------|---------|
B|---------|---------|---------|---------|---------|---------|---------|---------|---------|
G|-%-------|-%-------|-%-------|-%-------|-%-------|-%-------|-%-------|-%-------|-%-------|
D|-%-------|-%-------|-%-------|-%-------|-%-------|-%-------|-%-------|-%-------|-%-------|
A|---------|---------|---------|---------|---------|---------|---------|---------|---------|
E|---------|---------|---------|---------|---------|---------|---------|---------|---------|

E|---------|---------|---------|-5---------------5---------------5---------------5---------------|
B|---------|---------|---------|-----7---5-----------7---5-----------7---5-----------7---5-------|
G|-%-------|-%-------|-%-------|-------------7---------------7---------------7---------------7---|
D|-%-------|-%-------|-%-------|-----------------------------------------------------------------|
A|---------|---------|---------|-----------------------------------------------------------------|
E|---------|---------|---------|-----------------------------------------------------------------|

E|-5---------------5---------------5---------------5---------------|-5---------------5---------------5---------------5---------------|
B|-----5---------------5---------------5---------------5-----------|-----7---5-----------7---5-----------7---5-----------7---5-------|
G|---------7---6-----------7---6-----------7---6-----------7---6---|-------------7---------------7---------------7---------------7---|
D|-----------------------------------------------------------------|-----------------------------------------------------------------|
A|-----------------------------------------------------------------|-----------------------------------------------------------------|
E|-----------------------------------------------------------------|-----------------------------------------------------------------|

E|-0---------------0---------------0---------------0---------------|-3---------------3---------------3---------------3---------------|
B|-----2---0-----------2---0-----------2---0-----------2---0-------|-----5---3-----------5---3-----------5---3-----------5---3-------|
G|-------------2---------------2---------------2---------------2---|-------------5---------------5---------------5---------------5---|
D|-----------------------------------------------------------------|-----------------------------------------------------------------|
A|-----------------------------------------------------------------|-----------------------------------------------------------------|
E|-----------------------------------------------------------------|-----------------------------------------------------------------|

E|-3---------------3---------------3---------------3---------------|-3---------------3---------------3---------------3---------------|
B|-----3---------------3---------------3---------------3-----------|-----5---3-----------5---3-----------5---3-----------5---3-------|
G|---------5---4-----------5---4-----------5---4-----------5---4---|-------------5---------------5---------------5---------------5---|
D|-----------------------------------------------------------------|-----------------------------------------------------------------|
A|-----------------------------------------------------------------|-----------------------------------------------------------------|
E|-----------------------------------------------------------------|-----------------------------------------------------------------|

E|-3---------------3---------------3---------------3---------------|-5---------------5---------------5---------------5---------------|
B|-----3---------------3---------------3---------------3-----------|-----7---5-----------7---5-----------7---5-----------7---5-------|
G|---------5---4-----------5---4-----------5---4-----------5---4---|-------------7---------------7---------------7---------------7---|
D|-----------------------------------------------------------------|-----------------------------------------------------------------|
A|-----------------------------------------------------------------|-----------------------------------------------------------------|
E|-----------------------------------------------------------------|-----------------------------------------------------------------|

E|-5---------------5---------------5---------------5---------------|-5---------------5---------------5---------------5---------------|
B|-----5---------------5---------------5---------------5-----------|-----7---5-----------7---5-----------7---5-----------7---5-------|
G|---------7---6-----------7---6-----------7---6-----------7---6---|-------------7---------------7---------------7---------------7---|
D|-----------------------------------------------------------------|-----------------------------------------------------------------|
A|-----------------------------------------------------------------|-----------------------------------------------------------------|
E|-----------------------------------------------------------------|-----------------------------------------------------------------|

E|-0---------------0---------------0---------------0---------------|-3---------------3---------------3---------------3---------------|
B|-----2---0-----------2---0-----------2---0-----------2---0-------|-----5---3-----------5---3-----------5---3-----------5---3-------|
G|-------------2---------------2---------------2---------------2---|-------------5---------------5---------------5---------------5---|
D|-----------------------------------------------------------------|-----------------------------------------------------------------|
A|-----------------------------------------------------------------|-----------------------------------------------------------------|
E|-----------------------------------------------------------------|-----------------------------------------------------------------|

E|-3---------------3---------------3---------------3---------------|-3---------------3---------------3---------------3---------------|
B|-----3---------------3---------------3---------------3-----------|-----5---3-----------5---3-----------5---3-----------5---3-------|
G|---------5---4-----------5---4-----------5---4-----------5---4---|-------------5---------------5---------------5---------------5---|
D|-----------------------------------------------------------------|-----------------------------------------------------------------|
A|-----------------------------------------------------------------|-----------------------------------------------------------------|
E|-----------------------------------------------------------------|-----------------------------------------------------------------|

E|-3---------------3---------------3---------------3---------------|-5-------------------------5-----5---3-----|
B|-----3---------------3---------------3---------------3-----------|-5----3---2---0----0-------2-----2---0-----|
G|---------5---4-----------5---4-----------5---4-----------5---4---|-----------------------2-------------------|
D|-----------------------------------------------------------------|-------------------------------------------|
A|-----------------------------------------------------------------|-------------------------------------------|
E|-----------------------------------------------------------------|-------------------------------------------|

E|-3-------------|-3-------------|---------|---------|---------|---------|---------|
B|-1-------------|-1-------------|---------|---------|---------|---------|---------|
G|--------%------|--------%------|-%-------|-%-------|-%-------|-%-------|-%-------|
D|--------%------|--------%------|-%-------|-%-------|-%-------|-%-------|-%-------|
A|---------------|---------------|---------|---------|---------|---------|---------|
E|---------------|---------------|---------|---------|---------|---------|---------|

E|---------|---------|---------|---------|---------|---------|---------|---------|---------|
B|---------|---------|---------|---------|---------|---------|---------|---------|---------|
G|-%-------|-%-------|-%-------|-%-------|-%-------|-%-------|-%-------|-%-------|-%-------|
D|-%-------|-%-------|-%-------|-%-------|-%-------|-%-------|-%-------|-%-------|-%-------|
A|---------|---------|---------|---------|---------|---------|---------|---------|---------|
E|---------|---------|---------|---------|---------|---------|---------|---------|---------|

E|---------|---------|---------|---------|---------|---------|---------|---------|---------|
B|---------|---------|---------|---------|---------|---------|---------|---------|---------|
G|-%-------|-%-------|-%-------|-%-------|-%-------|-%-------|-%-------|-%-------|-%-------|
D|-%-------|-%-------|-%-------|-%-------|-%-------|-%-------|-%-------|-%-------|-%-------|
A|---------|---------|---------|---------|---------|---------|---------|---------|---------|
E|---------|---------|---------|---------|---------|---------|---------|---------|---------|

E|---------|---------|---------|---------|---------|---------|---------|
B|---------|---------|---------|---------|---------|---------|---------|
G|-%-------|-%-------|-%-------|-%-------|-%-------|-%-------|-%-------|
D|-%-------|-%-------|-%-------|-%-------|-%-------|-%-------|-%-------|
A|---------|---------|---------|---------|---------|---------|---------|
E|---------|---------|---------|---------|---------|---------|---------|
Pink Floyd - Comfortably Numb (5)
Pink Floyd - Comfortably Numb (5).gp3