Pink Floyd - Comfortably Numb (solo)

Pink Floyd



Title: Comfortably Numb (solo)
Album: 
Artist: Pink Floyd
Author: 

Track 1: Guitar 1
E|--------------------------10-|-14----14----14---X---14--14--14-------|------------------------------------------------|
B|-----------------------10----|-----------------------------------15--|-15----15--15--15---14---14---------------------|
G|-%------%-----%-----11-------|---------------------------------------|------------------------------14----------------|
D|-%------%-----%--------------|---------------------------------------|---------------------------------14---14----12--|
A|-----------------------------|---------------------------------------|------------------------------------------------|
E|-----------------------------|---------------------------------------|------------------------------------------------|

E|-----------------------10-14---14---14---|----------------------------------------------------|
B|-------------0------10-------------------|-15----15---15---14---------------------------------|
G|-----------------11----------------------|----------------------14----------------------------|
D|-12-----12-------------------------------|---------------------------14---12---9----11--------|
A|-----------------------------------------|-----------------------------------------------12---|
E|-----------------------------------------|----------------------------------------------------|

E|-------------------------------------------|-----------------------------------------------------|
B|-------------------------------------------|-----------------------------------------------------|
G|-12----12----12---11-------------%---11-9--|-9----9---7---7-----7----9--7-----7--9---11--%---11--|
D|-----------------------14---12---%---------|-------------------------------9-------------%-------|
A|-------------------------------------------|-----------------------------------------------------|
E|-------------------------------------------|-----------------------------------------------------|

E|----------------------14-15---14---12------------------|--------------------------------------|
B|-------------------X--------------------15---12--------|--------------------------------------|
G|-11----11-------X---------------------------------12---|--------------------------------------|
D|------------X------------------------------------------|-12----10---9----9-----9---10-9--7----|
A|-------------------------------------------------------|--------------------------------------|
E|-------------------------------------------------------|--------------------------------------|

E|------------------------|-------------------------------------------|--------------------|
B|------------------------|-------------------------------------------|--------------------|
G|--------%-----%---9-----|-9-----9---9----9--9--7-----7--------------|--------------------|
D|-7------%-----%---------|---------------------------------9----7----|-7------7------7----|
A|------------------------|-------------------------------------------|--------------------|
E|------------------------|-------------------------------------------|--------------------|
Pink Floyd - Comfortably Numb (solo)
Pink Floyd - Comfortably Numb (solo).gp3