Pink Floyd - Coming Back To Life

Pink Floyd



Title: Coming back to life
Album: The division bell
Artist: Pink Floyd
Author: 

Track 1: Guitar 1
E|------------------------|------------------------------------|----------------------------------------------|
B|------------------------|-------------5----------------------|----------------------------------------------|
G|-%------%---------------|-7------7---------7----7---7---7----|-7----7----%-------5---7---7-----7---7--------|
D|-%------%-----5----5----|------------------------------------|-----------%---5--------------------------5---|
A|------------------------|------------------------------------|----------------------------------------------|
E|------------------------|------------------------------------|----------------------------------------------|

E|---------------------------------------|-----------------------------|--------------------------------|
B|---------------------------------------|-----------------------------|--------------------------------|
G|-------------5----7----5---5---5-------|-5------5----%----7----9-----|-9------7----5---4---7----7-----|
D|-5------7--------------------------7---|-------------%---------------|--------------------------------|
A|---------------------------------------|-----------------------------|--------------------------------|
E|---------------------------------------|-----------------------------|--------------------------------|

E|----------------------------|--------------------------------------------------------|
B|----------------------------|--------------------------------------------------------|
G|-7------7----5----4---------|-5-------4----------------------------------------------|
D|-----------------------7----|-----7-------7---7---5----------------------------------|
A|----------------------------|---------------------------6---5---3-------5-------3----|
E|----------------------------|---------------------------------------5-------5--------|

E|------------------------|-------------12---------|----------------------------------------------|
B|------------------------|-15-----15--------17----|-15---15-----------13--15--15----15--15-------|
G|--------%-----12---12---|------------------------|-----------%---12-------------------------12--|
D|--------%---------------|------------------------|-----------%----------------------------------|
A|-3----------------------|------------------------|----------------------------------------------|
E|------------------------|------------------------|----------------------------------------------|

E|-----------------------------------|-----------------------------------|-5-----------------------------------|
B|-------------13----17--13--15------|-13--15----13-13-13----0-----------|------8------------------------------|
G|-12-----14---------------------14--|--------------------14------%------|-----------7-----7----7----5----4----|
D|-----------------------------------|----------------------------%------|-------------------------------------|
A|-----------------------------------|-----------------------------------|-------------------------------------|
E|-----------------------------------|-----------------------------------|-------------------------------------|

E|---------------------------------------|------------------------------------------------------------------|
B|---------------------------------------|------------------------------------------------------------------|
G|-7------7---5---4-------5---------4----|-----------------------------------5---------5---7---7---5--------|
D|--------------------7--------7---------|-5---7-------------------------5-------7---------------------7----|
A|---------------------------------------|---------6--5--3-----3---5--7-------------------------------------|
E|---------------------------------------|------------------5-----------------------------------------------|

E|------------------------|----------------------------|----------------------------------------|
B|-------------------17---|-17---------------13--15----|-13---13--13--13--15----15--------------|
G|-%------%-----%---------|--------%----14-------------|------------------------------%---------|
D|-%------%-----%---------|--------%-------------------|------------------------------%-----7---|
A|------------------------|----------------------------|----------------------------------------|
E|------------------------|----------------------------|----------------------------------------|

E|---------------------------------------------|----------------------------------------|
B|-----------------------------------------8---|-8----6-----5----5----6----5--------5---|
G|-5---7-----9----9----9----9-----%---9--------|--------------------------------7-------|
D|--------------------------------%------------|----------------------------------------|
A|---------------------------------------------|----------------------------------------|
E|---------------------------------------------|----------------------------------------|

E|-------------------------------------|--------------------------------------|---------|
B|-------------------------------------|--------------------------------------|---------|
G|-7------7---5--------5----7----7-----|-7-----7----7----5----7-----7---7-----|-7-------|
D|----------------7--------------------|--------------------------------------|---------|
A|-------------------------------------|--------------------------------------|---------|
E|-------------------------------------|--------------------------------------|---------|

E|---------|---------|---------|---------|---------|---------|---------|---------|---------|
B|---------|---------|---------|---------|---------|---------|---------|---------|---------|
G|-%-------|-%-------|-%-------|-%-------|-%-------|-%-------|-%-------|-%-------|-%-------|
D|-%-------|-%-------|-%-------|-%-------|-%-------|-%-------|-%-------|-%-------|-%-------|
A|---------|---------|---------|---------|---------|---------|---------|---------|---------|
E|---------|---------|---------|---------|---------|---------|---------|---------|---------|

E|---------|---------|---------|---------|---------|---------|---------|---------|---------|
B|---------|---------|---------|---------|---------|---------|---------|---------|---------|
G|-%-------|-%-------|-%-------|-%-------|-%-------|-%-------|-%-------|-%-------|-%-------|
D|-%-------|-%-------|-%-------|-%-------|-%-------|-%-------|-%-------|-%-------|-%-------|
A|---------|---------|---------|---------|---------|---------|---------|---------|---------|
E|---------|---------|---------|---------|---------|---------|---------|---------|---------|

E|---------|---------|---------|---------|---------|---------|---------|---------|---------|
B|---------|---------|---------|---------|---------|---------|---------|---------|---------|
G|-%-------|-%-------|-%-------|-%-------|-%-------|-%-------|-%-------|-%-------|-%-------|
D|-%-------|-%-------|-%-------|-%-------|-%-------|-%-------|-%-------|-%-------|-%-------|
A|---------|---------|---------|---------|---------|---------|---------|---------|---------|
E|---------|---------|---------|---------|---------|---------|---------|---------|---------|

E|---------|---------|---------|---------|---------|---------|---------|---------|---------|
B|---------|---------|---------|---------|---------|---------|---------|---------|---------|
G|-%-------|-%-------|-%-------|-%-------|-%-------|-%-------|-%-------|-%-------|-%-------|
D|-%-------|-%-------|-%-------|-%-------|-%-------|-%-------|-%-------|-%-------|-%-------|
A|---------|---------|---------|---------|---------|---------|---------|---------|---------|
E|---------|---------|---------|---------|---------|---------|---------|---------|---------|

E|---------|---------|---------|---------|---------|---------|---------|---------|---------|
B|---------|---------|---------|---------|---------|---------|---------|---------|---------|
G|-%-------|-%-------|-%-------|-%-------|-%-------|-%-------|-%-------|-%-------|-%-------|
D|-%-------|-%-------|-%-------|-%-------|-%-------|-%-------|-%-------|-%-------|-%-------|
A|---------|---------|---------|---------|---------|---------|---------|---------|---------|
E|---------|---------|---------|---------|---------|---------|---------|---------|---------|

E|---------|---------|---------|---------|---------|---------|---------|---------|---------|
B|---------|---------|---------|---------|---------|---------|---------|---------|---------|
G|-%-------|-%-------|-%-------|-%-------|-%-------|-%-------|-%-------|-%-------|-%-------|
D|-%-------|-%-------|-%-------|-%-------|-%-------|-%-------|-%-------|-%-------|-%-------|
A|---------|---------|---------|---------|---------|---------|---------|---------|---------|
E|---------|---------|---------|---------|---------|---------|---------|---------|---------|

E|---------|---------|---------|---------|---------|---------|---------|---------|---------|
B|---------|---------|---------|---------|---------|---------|---------|---------|---------|
G|-%-------|-%-------|-%-------|-%-------|-%-------|-%-------|-%-------|-%-------|-%-------|
D|-%-------|-%-------|-%-------|-%-------|-%-------|-%-------|-%-------|-%-------|-%-------|
A|---------|---------|---------|---------|---------|---------|---------|---------|---------|
E|---------|---------|---------|---------|---------|---------|---------|---------|---------|

E|---------|---------|---------|---------|---------|---------|---------|---------|---------|
B|---------|---------|---------|---------|---------|---------|---------|---------|---------|
G|-%-------|-%-------|-%-------|-%-------|-%-------|-%-------|-%-------|-%-------|-%-------|
D|-%-------|-%-------|-%-------|-%-------|-%-------|-%-------|-%-------|-%-------|-%-------|
A|---------|---------|---------|---------|---------|---------|---------|---------|---------|
E|---------|---------|---------|---------|---------|---------|---------|---------|---------|

E|---------|---------|---------|---------|---------|---------|---------|---------|---------|
B|---------|---------|---------|---------|---------|---------|---------|---------|---------|
G|-%-------|-%-------|-%-------|-%-------|-%-------|-%-------|-%-------|-%-------|-%-------|
D|-%-------|-%-------|-%-------|-%-------|-%-------|-%-------|-%-------|-%-------|-%-------|
A|---------|---------|---------|---------|---------|---------|---------|---------|---------|
E|---------|---------|---------|---------|---------|---------|---------|---------|---------|

E|---------|---------|---------|---------|---------|---------|---------|---------|---------|
B|---------|---------|---------|---------|---------|---------|---------|---------|---------|
G|-%-------|-%-------|-%-------|-%-------|-%-------|-%-------|-%-------|-%-------|-%-------|
D|-%-------|-%-------|-%-------|-%-------|-%-------|-%-------|-%-------|-%-------|-%-------|
A|---------|---------|---------|---------|---------|---------|---------|---------|---------|
E|---------|---------|---------|---------|---------|---------|---------|---------|---------|

E|---------|---------|---------|---------|---------|---------|---------|---------|---------|
B|---------|---------|---------|---------|---------|---------|---------|---------|---------|
G|-%-------|-%-------|-%-------|-%-------|-%-------|-%-------|-%-------|-%-------|-%-------|
D|-%-------|-%-------|-%-------|-%-------|-%-------|-%-------|-%-------|-%-------|-%-------|
A|---------|---------|---------|---------|---------|---------|---------|---------|---------|
E|---------|---------|---------|---------|---------|---------|---------|---------|---------|

E|---------|---------|---------|
B|---------|---------|---------|
G|-%-------|-%-------|-%-------|
D|-%-------|-%-------|-%-------|
A|---------|---------|---------|
E|---------|---------|---------|
Pink Floyd - Coming Back To Life
Pink Floyd - Coming Back To Life.gp3