Pink Floyd - Dogs of War Solo

Pink Floyd



Title: dogs of war solo
Album: a momentary laspe of reason 
Artist: pink floyd
Author: saldex

Track 1: gilmour
E|---------------------------|-----------------------------------------|-----------------------------------|
B|---------------------------|-------------------------13---13----13---|-13------13----13---13---11---13---|
G|----------------------8----|-------8----%------%---------------------|-----------------------------------|
D|-10-----10------10---------|-10---------%------%---------------------|-----------------------------------|
A|---------------------------|-----------------------------------------|-----------------------------------|
E|---------------------------|-----------------------------------------|-----------------------------------|

E|---------------------------------|---------------------------------------------|-------------------------------------------------|
B|-16------------------------------|---------------------------------------------|-------11---11---11----11----11------------------|
G|--------%------%------3----------|---------------------------------------%-----|-%-----11---11---11----11----10---8---------11---|
D|--------%------%-----------5-----|-----------------------1----------1----%-----|-%-------------------------------------10--------|
A|---------------------------------|-3-----3----3-----1---------3----------------|-------------------------------------------------|
E|---------------------------------|---------------------------------------------|-------------------------------------------------|

E|-11--------------------------------------------------------------|-------------------------------|
B|-----------------------------------------------------------------|----------------------7---9----|
G|------10--------8---10--10--10--8-------10--0---------8----%-----|-%-------%------8--------------|
D|-----------10-----------------------10----------10---------%-----|-%-------%---------------------|
A|-----------------------------------------------------------------|-------------------------------|
E|-----------------------------------------------------------------|-------------------------------|

E|-----------------------------------------------------------|-----------------------------------|
B|-11----11---9-----7-------7---9----10--9---7----------7----|---------------11---11---14---11---|
G|----------------------8-------------------------8----------|-%-------%-------------------------|
D|-----------------------------------------------------------|-%-------%-------------------------|
A|-----------------------------------------------------------|-----------------------------------|
E|-----------------------------------------------------------|-----------------------------------|

E|-11-------11--------------------------------------------------------------|-----------------------------------------|
B|------14-------14---11----------------------------------------------------|----------------------------13----13-----|
G|-------------------------13---11--------11---13--14--13--11------13-------|------11---%----%------%-----------------|
D|-----------------------------------13------------------------13------13---|-13--------%----%------%-----------------|
A|--------------------------------------------------------------------------|-----------------------------------------|
E|--------------------------------------------------------------------------|-----------------------------------------|

E|-----------------------------------|-8-----8----8----11---8----8-----8----8--------------|
B|-13------13----13---13---13---11---|-------------------------------------------11---8----|
G|-----------------------------------|-----------------------------------------------------|
D|-----------------------------------|-----------------------------------------------------|
A|-----------------------------------|-----------------------------------------------------|
E|-----------------------------------|-----------------------------------------------------|

E|-11--8--------8----8-----8----11--8---13----13---14---11---|-8----11---10--8---12--8---8-----8--------------------11---|
B|-----------------------------------------------------------|-------------------------------------------------13--------|
G|---------%-------------------------------------------------|--------------------------------------%-----%--------------|
D|---------%-------------------------------------------------|--------------------------------------%-----%--------------|
A|-----------------------------------------------------------|-----------------------------------------------------------|
E|-----------------------------------------------------------|-----------------------------------------------------------|

E|-13-----13----13--11--13---13---13---11-------11-------|-11--------------------------------------------|
B|------------------------------------------13------13---|-----13--16----16-----16-----------------------|
G|-------------------------------------------------------|---------------------------%-----%---------8---|
D|-------------------------------------------------------|---------------------------%-----%-----10------|
A|-------------------------------------------------------|-----------------------------------------------|
E|-------------------------------------------------------|-----------------------------------------------|

E|------------------------------------8----------------|-----------------------------------|
B|-----------------------------------------13---13-----|-13------13---10---11---10---10----|
G|-10---10---8---------8----10---12--------------------|--------------10---11---10---10----|
D|----------------10-----------------------------------|-----------------------------------|
A|-----------------------------------------------------|-----------------------------------|
E|-----------------------------------------------------|-----------------------------------|

E|---------------------------|
B|---------------------------|
G|-----8---------------%-----|
D|-10------10---10-----%-----|
A|---------------------------|
E|---------------------------|
Pink Floyd - Dogs of War Solo
Pink Floyd - Dogs of War Solo.gp3