Pink Floyd - Dogs (Solo 1&2)

Pink Floyd



Title: Dogs (solo 1 & 2)
Album: Animals
Artist: Pink Floyd
Author: Waters-Gilmour

Track 1: rythm Gtr
D|-2-----2-----------2----2---2-----------2---2-----------|-2-----2-----------2----2---2-----------2---2-----------|
A|-3-----3---X-------3----3---3---X-------3---3---X-------|-3-----3---X-------3----3---3---X-------3---3---X-------|
F|-0-----0---X---X---0----0---0-------X---0---0---X---X---|-0-----0---X---X---0----0---0-------X---0---0---X---X---|
C|-2-----2---X---X---2----2---2---X---X---2---2---X---X---|-2-----2---X---X---2----2---2---X---X---2---2---X---X---|
G|-2-----2-----------2----2---2-----------2---2-----------|-2-----2-----------2----2---2-----------2---2-----------|
D|-0-----0-----------0----0---0-----------0---0-----------|-0-----0-----------0----0---0-----------0---0-----------|

D|-2-----2-----------2----2---2-----------2---2-----------|-2-----2-----------2----2---2-----------2---2-----------|
A|-3-----3---X-------3----3---3---X-------3---3---X-------|-3-----3---X-------3----3---3---X-------3---3---X-------|
F|-0-----0---X---X---0----0---0-------X---0---0---X---X---|-0-----0---X---X---0----0---0-------X---0---0---X---X---|
C|-2-----2---X---X---2----2---2---X---X---2---2---X---X---|-2-----2---X---X---2----2---2---X---X---2---2---X---X---|
G|-2-----2-----------2----2---2-----------2---2-----------|-2-----2-----------2----2---2-----------2---2-----------|
D|-0-----0-----------0----0---0-----------0---0-----------|-0-----0-----------0----0---0-----------0---0-----------|

D|-0-----0-----------0----0---0-----------0---0-----------|-0-----0-----------0----0---0-----------0---0-----------|
A|-1-----1---X-------1----1---1---X-------1---1---X-------|-1-----1---X-------1----1---1---X-------1---1---X-------|
F|-0-----0---X---X---0----0---0---X---X---0---0---X---X---|-0-----0---X---X---0----0---0---X---X---0---0---X---X---|
C|-3-----3---X---X---3----3---3---X---X---3---3---X---X---|-3-----3---X---X---3----3---3---X---X---3---3---X---X---|
G|-3-----3-----------3----3---3-----------3---3-----------|-3-----3-----------3----3---3-----------3---3-----------|
D|--------------------------------------------------------|--------------------------------------------------------|

D|-0-----0-----------0----0---0-----------0---0-----------|-0-----0-----------0----0---0-----------0---0-----------|
A|-1-----1---X-------1----1---1---X-------1---1---X-------|-1-----1---X-------1----1---1---X-------1---1---X-------|
F|-0-----0---X---X---0----0---0---X---X---0---0---X---X---|-0-----0---X---X---0----0---0---X---X---0---0---X---X---|
C|-3-----3---X---X---3----3---3---X---X---3---3---X---X---|-3-----3---X---X---3----3---3---X---X---3---3---X---X---|
G|-3-----3-----------3----3---3-----------3---3-----------|-3-----3-----------3----3---3-----------3---3-----------|
D|--------------------------------------------------------|--------------------------------------------------------|

D|-0-----0-----------0----0---0---0-------0---2-----------|-0-----0-----------0----0---0---0-------0---0-----------|
A|-2-----2---X-------2----2---2---X-------2---2---X-------|-2-----2---X-------2----2---2---X-------2---2---X-------|
F|-4-----4---X---X---4----4---4---X---X---4---4---X---X---|-4-----4---X---X---4----4---4---X---X---4---4---X---X---|
C|-4-----4---X---X---4----4---4---X---X---4---4---X---X---|-4-----4---X---X---4----4---4---X---X---4---4---X---X---|
G|--------------------------------------------------------|--------------------------------------------------------|
D|--------------------------------------------------------|--------------------------------------------------------|

D|-0-----0-----------0----0---0---0-------0---2-----------|-0-----0-----------0----0---0---0-------0---0-----------|
A|-2-----2---X-------2----2---2---X-------2---2---X-------|-2-----2---X-------2----2---2---X-------2---2---X-------|
F|-4-----4---X---X---4----4---4---X---X---4---4---X---X---|-4-----4---X---X---4----4---4---X---X---4---4---X---X---|
C|-4-----4---X---X---4----4---4---X---X---4---4---X---X---|-4-----4---X---X---4----4---4---X---X---4---4---X---X---|
G|--------------------------------------------------------|--------------------------------------------------------|
D|--------------------------------------------------------|--------------------------------------------------------|

D|-0-----0-----------0----0---0---0-------0---1-----------|-0-----0-----------0----0---0---0-------0---0-----------|
A|-1-----1---X-------1----1---1---1-------1---1---X-------|-1-----1---X-------1----1---1---1-------1---1---X-------|
F|-3-----3---X---X---3----3---3---X---X---3---3---X---X---|-3-----3---X---X---3----3---3---X---X---3---3---X---X---|
C|-3-----3---X---X---3----3---3---X---X---3---3---X---X---|-3-----3---X---X---3----3---3---X---X---3---3---X---X---|
G|--------------------------------------------------------|--------------------------------------------------------|
D|--------------------------------------------------------|--------------------------------------------------------|

D|-0-----0-----------0----0---0---0-------0---1-----------|-0-----0-----------0----0---0---0-------0---0-----------|
A|-1-----1---X-------1----1---1---1-------1---1---X-------|-1-----1---X-------1----1---1---1-------1---1---X-------|
F|-3-----3---X---X---3----3---3---X---X---3---3---X---X---|-3-----3---X---X---3----3---3---X---X---3---3---X---X---|
C|-3-----3---X---X---3----3---3---X---X---3---3---X---X---|-3-----3---X---X---3----3---3---X---X---3---3---X---X---|
G|--------------------------------------------------------|--------------------------------------------------------|
D|--------------------------------------------------------|--------------------------------------------------------|

D|-2-----2-----------2----2---2-----------2---2-----------|-2-----2-----------2----2---2-----------2---2-----------|
A|-3-----3---X-------3----3---3---X-------3---3---X-------|-3-----3---X-------3----3---3---X-------3---3---X-------|
F|-0-----0---X---X---0----0---0-------X---0---0---X---X---|-0-----0---X---X---0----0---0-------X---0---0---X---X---|
C|-2-----2---X---X---2----2---2---X---X---2---2---X---X---|-2-----2---X---X---2----2---2---X---X---2---2---X---X---|
G|-2-----2-----------2----2---2-----------2---2-----------|-2-----2-----------2----2---2-----------2---2-----------|
D|-0-----0-----------0----0---0-----------0---0-----------|-0-----0-----------0----0---0-----------0---0-----------|

D|-2-----2-----------2----2---2-----------2---2-----------|-2-----2-----------2----2---2-----------2---2-----------|
A|-3-----3---X-------3----3---3---X-------3---3---X-------|-3-----3---X-------3----3---3---X-------3---3---X-------|
F|-0-----0---X---X---0----0---0-------X---0---0---X---X---|-0-----0---X---X---0----0---0-------X---0---0---X---X---|
C|-2-----2---X---X---2----2---2---X---X---2---2---X---X---|-2-----2---X---X---2----2---2---X---X---2---2---X---X---|
G|-2-----2-----------2----2---2-----------2---2-----------|-2-----2-----------2----2---2-----------2---2-----------|
D|-0-----0-----------0----0---0-----------0---0-----------|-0-----0-----------0----0---0-----------0---0-----------|

D|-0-----0-----------0----0---0-----------0---0-----------|-0-----0-----------0----0---0-----------0---0-----------|
A|-1-----1---X-------1----1---1---X-------1---1---X-------|-1-----1---X-------1----1---1---X-------1---1---X-------|
F|-0-----0---X---X---0----0---0---X---X---0---0---X---X---|-0-----0---X---X---0----0---0---X---X---0---0---X---X---|
C|-3-----3---X---X---3----3---3---X---X---3---3---X---X---|-3-----3---X---X---3----3---3---X---X---3---3---X---X---|
G|-3-----3-----------3----3---3-----------3---3-----------|-3-----3-----------3----3---3-----------3---3-----------|
D|--------------------------------------------------------|--------------------------------------------------------|

D|-0-----0-----------0----0---0-----------0---0-----------|-0-----0-----------0----0---0-----------0---0-----------|
A|-1-----1---X-------1----1---1---X-------1---1---X-------|-1-----1---X-------1----1---1---X-------1---1---X-------|
F|-0-----0---X---X---0----0---0---X---X---0---0---X---X---|-0-----0---X---X---0----0---0---X---X---0---0---X---X---|
C|-3-----3---X---X---3----3---3---X---X---3---3---X---X---|-3-----3---X---X---3----3---3---X---X---3---3---X---X---|
G|-3-----3-----------3----3---3-----------3---3-----------|-3-----3-----------3----3---3-----------3---3-----------|
D|--------------------------------------------------------|--------------------------------------------------------|

D|-0-----0-----------0----0---0---0-------0---2-----------|-0-----0-----------0----0---0---0-------0---0-----------|
A|-2-----2---X-------2----2---2---X-------2---2---X-------|-2-----2---X-------2----2---2---X-------2---2---X-------|
F|-4-----4---X---X---4----4---4---X---X---4---4---X---X---|-4-----4---X---X---4----4---4---X---X---4---4---X---X---|
C|-4-----4---X---X---4----4---4---X---X---4---4---X---X---|-4-----4---X---X---4----4---4---X---X---4---4---X---X---|
G|--------------------------------------------------------|--------------------------------------------------------|
D|--------------------------------------------------------|--------------------------------------------------------|

D|-0-----0-----------0----0---0---0-------0---2-----------|-0-----0-----------0----0---0---0-------0---0-----------|
A|-2-----2---X-------2----2---2---X-------2---2---X-------|-2-----2---X-------2----2---2---X-------2---2---X-------|
F|-4-----4---X---X---4----4---4---X---X---4---4---X---X---|-4-----4---X---X---4----4---4---X---X---4---4---X---X---|
C|-4-----4---X---X---4----4---4---X---X---4---4---X---X---|-4-----4---X---X---4----4---4---X---X---4---4---X---X---|
G|--------------------------------------------------------|--------------------------------------------------------|
D|--------------------------------------------------------|--------------------------------------------------------|

D|-0-----0-----------0----0---0---0-------0---1-----------|-0-----0-----------0----0---0---0-------0---0-----------|
A|-1-----1---X-------1----1---1---1-------1---1---X-------|-1-----1---X-------1----1---1---1-------1---1---X-------|
F|-3-----3---X---X---3----3---3---X---X---3---3---X---X---|-3-----3---X---X---3----3---3---X---X---3---3---X---X---|
C|-3-----3---X---X---3----3---3---X---X---3---3---X---X---|-3-----3---X---X---3----3---3---X---X---3---3---X---X---|
G|--------------------------------------------------------|--------------------------------------------------------|
D|--------------------------------------------------------|--------------------------------------------------------|

D|-0-----0-----------0----0---0---0-------0---1-----------|-0-----0-----------0----0---0---0-------0---0-----------|
A|-1-----1---X-------1----1---1---1-------1---1---X-------|-1-----1---X-------1----1---1---1-------1---1---X-------|
F|-3-----3---X---X---3----3---3---X---X---3---3---X---X---|-3-----3---X---X---3----3---3---X---X---3---3---X---X---|
C|-3-----3---X---X---3----3---3---X---X---3---3---X---X---|-3-----3---X---X---3----3---3---X---X---3---3---X---X---|
G|--------------------------------------------------------|--------------------------------------------------------|
D|--------------------------------------------------------|--------------------------------------------------------|

D|-2-----2-----------2----2---2-----------2---2-----------|-2-----2-----------2----2---2-----------2---2-----------|
A|-3-----3---X-------3----3---3---X-------3---3---X-------|-3-----3---X-------3----3---3---X-------3---3---X-------|
F|-0-----0---X---X---0----0---0-------X---0---0---X---X---|-0-----0---X---X---0----0---0-------X---0---0---X---X---|
C|-2-----2---X---X---2----2---2---X---X---2---2---X---X---|-2-----2---X---X---2----2---2---X---X---2---2---X---X---|
G|-2-----2-----------2----2---2-----------2---2-----------|-2-----2-----------2----2---2-----------2---2-----------|
D|-0-----0-----------0----0---0-----------0---0-----------|-0-----0-----------0----0---0-----------0---0-----------|

D|-2-----2-----------2----2---2-----------2---2-----------|-2-----2-----------2----2---2-----------2---2-----------|
A|-3-----3---X-------3----3---3---X-------3---3---X-------|-3-----3---X-------3----3---3---X-------3---3---X-------|
F|-0-----0---X---X---0----0---0-------X---0---0---X---X---|-0-----0---X---X---0----0---0-------X---0---0---X---X---|
C|-2-----2---X---X---2----2---2---X---X---2---2---X---X---|-2-----2---X---X---2----2---2---X---X---2---2---X---X---|
G|-2-----2-----------2----2---2-----------2---2-----------|-2-----2-----------2----2---2-----------2---2-----------|
D|-0-----0-----------0----0---0-----------0---0-----------|-0-----0-----------0----0---0-----------0---0-----------|

D|-0-----0-----------0----0---0-----------0---0-----------|-0-----0-----------0----0---0-----------0---0-----------|
A|-1-----1---X-------1----1---1---X-------1---1---X-------|-1-----1---X-------1----1---1---X-------1---1---X-------|
F|-0-----0---X---X---0----0---0---X---X---0---0---X---X---|-0-----0---X---X---0----0---0---X---X---0---0---X---X---|
C|-3-----3---X---X---3----3---3---X---X---3---3---X---X---|-3-----3---X---X---3----3---3---X---X---3---3---X---X---|
G|-3-----3-----------3----3---3-----------3---3-----------|-3-----3-----------3----3---3-----------3---3-----------|
D|--------------------------------------------------------|--------------------------------------------------------|

D|-0-----0-----------0----0---0-----------0---0-----------|-0-----0-----------0----0---0-----------0---0-----------|
A|-1-----1---X-------1----1---1---X-------1---1---X-------|-1-----1---X-------1----1---1---X-------1---1---X-------|
F|-0-----0---X---X---0----0---0---X---X---0---0---X---X---|-0-----0---X---X---0----0---0---X---X---0---0---X---X---|
C|-3-----3---X---X---3----3---3---X---X---3---3---X---X---|-3-----3---X---X---3----3---3---X---X---3---3---X---X---|
G|-3-----3-----------3----3---3-----------3---3-----------|-3-----3-----------3----3---3-----------3---3-----------|
D|--------------------------------------------------------|--------------------------------------------------------|

D|-0-----0-----------0----0---0---0-------0---2-----------|-0-----0-----------0----0---0---0-------0---0-----------|
A|-2-----2---X-------2----2---2---X-------2---2---X-------|-2-----2---X-------2----2---2---X-------2---2---X-------|
F|-4-----4---X---X---4----4---4---X---X---4---4---X---X---|-4-----4---X---X---4----4---4---X---X---4---4---X---X---|
C|-4-----4---X---X---4----4---4---X---X---4---4---X---X---|-4-----4---X---X---4----4---4---X---X---4---4---X---X---|
G|--------------------------------------------------------|--------------------------------------------------------|
D|--------------------------------------------------------|--------------------------------------------------------|

D|-0-----0-----------0----0---0---0-------0---2-----------|-0-----0-----------0----0---0---0-------0---0-----------|
A|-2-----2---X-------2----2---2---X-------2---2---X-------|-2-----2---X-------2----2---2---X-------2---2---X-------|
F|-4-----4---X---X---4----4---4---X---X---4---4---X---X---|-4-----4---X---X---4----4---4---X---X---4---4---X---X---|
C|-4-----4---X---X---4----4---4---X---X---4---4---X---X---|-4-----4---X---X---4----4---4---X---X---4---4---X---X---|
G|--------------------------------------------------------|--------------------------------------------------------|
D|--------------------------------------------------------|--------------------------------------------------------|

D|-0-----0-----------0----0---0---0-------0---1-----------|-0-----0-----------0----0---0---0-------0---0-----------|
A|-1-----1---X-------1----1---1---1-------1---1---X-------|-1-----1---X-------1----1---1---1-------1---1---X-------|
F|-3-----3---X---X---3----3---3---X---X---3---3---X---X---|-3-----3---X---X---3----3---3---X---X---3---3---X---X---|
C|-3-----3---X---X---3----3---3---X---X---3---3---X---X---|-3-----3---X---X---3----3---3---X---X---3---3---X---X---|
G|--------------------------------------------------------|--------------------------------------------------------|
D|--------------------------------------------------------|--------------------------------------------------------|

D|-0-----0-----------0----0---0---0-------0---1-----------|-0-----0-----------0----0---0---0-------0---0-----------|
A|-1-----1---X-------1----1---1---1-------1---1---X-------|-1-----1---X-------1----1---1---1-------1---1---X-------|
F|-3-----3---X---X---3----3---3---X---X---3---3---X---X---|-3-----3---X---X---3----3---3---X---X---3---3---X---X---|
C|-3-----3---X---X---3----3---3---X---X---3---3---X---X---|-3-----3---X---X---3----3---3---X---X---3---3---X---X---|
G|--------------------------------------------------------|--------------------------------------------------------|
D|--------------------------------------------------------|--------------------------------------------------------|

D|-0-----0---------------0---0---0---0----|-------0-------0---0---0---0------------------|
A|-0-----0---0-----------0---0---0---0----|-0-----0---0---0---0---0---0------------------|
F|-0-----0---0-----------0---0---0---0----|-0-----0---0---0---0---0---0---%---%----%-----|
C|-2-----2---2-----2-----2-------2---2----|-2-----2---2---2---2---2---2---%---%----%-----|
G|-2-----2---2-----2-----------------2----|-2-----2---2---2---2---2---2------------------|
D|-0-----0---0-----0-----------------0----|-0-----0---0---0---0---0---0------------------|

D|-2-----2-----2---2----2----3---3---3---3---|-2-----2-----2---2----2----2---2---2----|
A|-3-----3-----3---3----3----3---3---3---3---|-3-----3-----3---3----3----3---3---3----|
F|-2-----2-----2---2----2----2---2---2---2---|-2-----2-----2---2----2----2---2---2----|
C|-0-----0-----0---0----0----0---0---0---0---|-0-----0-----0---0----0----0---0---0----|
G|-------------------------------------------|----------------------------------------|
D|-------------------------------------------|----------------------------------------|

D|-0-----0----0---0---0-----0---0-----|-0-------|-2-----2-----2---2----2----3---3---3---3---|
A|-0-----0----X---0---0-----0---0-----|-0-------|-3-----3-----3---3----3----3---3---3---3---|
F|-0-----0----X---0---0-----0---0-----|-0-------|-2-----2-----2---2----2----2---2---2---2---|
C|-2-----2----X---2---2-----2---2-----|-2-------|-0-----0-----0---0----0----0---0---0---0---|
G|-2-----2------------2-----2---------|-2-------|-------------------------------------------|
D|-0-----0------------0-----0---------|-0-------|-------------------------------------------|

D|-2-----2-----2---2----2----2---2---2----|-0-----0----0---0---0-----0---0-----|-0-----0----0---0---2------|
A|-3-----3-----3---3----3----3---3---3----|-0-----0----X---0---0-----0---0-----|-0-----0----0---0---3------|
F|-2-----2-----2---2----2----2---2---2----|-0-----0----X---0---0-----0---0-----|-0-----0----0---0---2------|
C|-0-----0-----0---0----0----0---0---0----|-2-----2----X---2---2-----2---2-----|-2-----2------------0------|
G|----------------------------------------|-2-----2------------2-----2---------|-2-----2-------------------|
D|----------------------------------------|-0-----0------------0-----0---------|-0-----0-------------------|

D|-0-----0----0---0---0----0----0---0---0----|-0-----0----0---0---0----0----0---0---0---0---|
A|-1-----1----1---1---1----1----1---1---1----|-1-----1----1---1---1----1----1---1---1---1---|
F|-0-----0----0---0---0----0----0---0---0----|-0-----0----0---0---0----0----0---0---0---0---|
C|-2-----2----2---2---2----2----2---2---2----|-2-----2----2---2---2----2----2---2---2---2---|
G|-3-----3----3---3---3----3----3---3---3----|-3-----3----3---3---3----3----3---3---3---3---|
D|-------------------------------------------|----------------------------------------------|

D|-0-----0----0---0---0----0----0---0---0----|-0-----0----0---0---0----0----0---0---0----|
A|-1-----1----1---1---1----1----1---1---1----|-1-----1----1---1---1----1----1---1---1----|
F|-0-----0----0---0---0----0----0---0---0----|-0-----0----0---0---0----0----0---0---0----|
C|-2-----2----2---2---2----2----2---2---2----|-2-----2----2---2---2----2----2---2---2----|
G|-3-----3----3---3---3----3----3---3---3----|-3-----3----3---3---3----3----3---3---3----|
D|-------------------------------------------|-------------------------------------------|

D|-3-----3----3---3---3----3----3---3---3----|-1-----1---1----1---1---1----1----1---1---1----|
A|-0-----0----0---0---0----0----0---0---0----|-1-----1---1----1---1---1----1----1---1---1----|
F|-0-----0----0---0---0----0----0---0---0----|-2-----2---2----2---2---2----2----2---2---2----|
C|-0-----0----0---0---0----0----0---0---0----|-3-----3---3----3---3---3----3----3---3---3----|
G|-2-----2----2---2---2----2----2---2---2----|-3-----3---3----3---3---3----3----3---3---3----|
D|-3-----3----3---3---3----3----3---3---3----|-1-----1---1----1---1---1----1----1---1---1----|

D|-3-----3----3---3---3----3----3---3---3----|-1-----1---1----1---1---1----1----1-----|
A|-0-----0----0---0---0----0----0---0---0----|-1-----1---1----1---1---1----1----1-----|
F|-0-----0----0---0---0----0----0---0---0----|-2-----2---2----2---2---2----2----2-----|
C|-0-----0----0---0---0----0----0---0---0----|-3-----3---3----3---3---3----3----3-----|
G|-2-----2----2---2---2----2----2---2---2----|-3-----3---3----3---3---3----3----3-----|
D|-3-----3----3---3---3----3----3---3---3----|-1-----1---1----1---1---1----1----1-----|

D|------------2----2-----2----2---2---|------------2----2-----2---2---2----|------------2----2-----2---2---2----|
A|-------X----3----3-----3----3---3---|-------X----3----3-----3---3---3----|-------X----3----3-----3---3---3----|
F|-0-----X----0----0-----0----0---0---|-0-----X----0----0-----0---0---0----|-0-----X----0----0-----0---0---0----|
C|-2-----X----2----2-----2----2---2---|-2-----X----2----2-----2---2---2----|-2-----X----2----2-----2---2---2----|
G|-2----------------------------------|-2----------------------------------|-2----------------------------------|
D|-0----------------------------------|-0----------------------------------|-0----------------------------------|

D|------------2----2-----2---2---2----|------------2----2-----2---2---2----|------------2----2-----2---2---2----|
A|-------X----3----3-----3---3---3----|-------X----3----3-----3---3---3----|-------X----3----3-----3---3---3----|
F|-0-----X----0----0-----0---0---0----|-0-----X----0----0-----0---0---0----|-0-----X----0----0-----0---0---0----|
C|-2-----X----2----2-----2---2---2----|-2-----X----2----2-----2---2---2----|-2-----X----2----2-----2---2---2----|
G|-2----------------------------------|-2----------------------------------|-2----------------------------------|
D|-0----------------------------------|-0----------------------------------|-0----------------------------------|

D|------------2----2-----2---2---2----|------------2----2-----2---2---2----|------------2----2-----2------------|
A|-------X----3----3-----3---3---3----|-------X----3----3-----3---3---3----|-1-----X----3----3-----3----X---X---|
F|-0-----X----0----0-----0---0---0----|-0-----X----0----0-----0---0---0----|-0-----X----2----2-----2----X---X---|
C|-2-----X----2----2-----2---2---2----|-2-----X----2----2-----2---2---2----|-2-----X----0----0-----0----X---X---|
G|-2----------------------------------|-2----------------------------------|-3----------------------------------|
D|-0----------------------------------|-0----------------------------------|------------------------------------|

D|------------2----2-----2------------|-3----------------------------------|--------------------------------------------|
A|-1-----X----3----3-----3----X---X---|-4-----X----4----4---------4--------|--------------------------------------------|
F|-0-----X----2----2-----2----X---X---|-4-----X----4----4---------4---4----|-----------4--------------4---------4---4---|
C|-2-----X----0----0-----0----X---X---|-------X----4----4-----4---4---4----|------4--------------4--------------4---4---|
G|-3----------------------------------|-2----------2----------2-------2----|-2------------------------------------------|
D|------------------------------------|------------------------------------|----------------3--------------2------------|
Pink Floyd - Dogs (Solo 1&2)
Pink Floyd - Dogs (Solo 1&2).gp3