Pink Floyd - Don't Leave Me Now

Pink Floyd



Title: Don't Leave Me Now
Album: The Wall 
Artist: Pink Floyd
Author: Roger Waters

Track 1: Acoustic Guitar
E|-------3-----------3-----|-------1-----------1-----|-------1-----------1-----|-------8-----------8-----|
B|-------3-----------3-----|-------1-----------1-----|-------1-----------1-----|-------6-----------6-----|
G|-------0-----------0-----|-------1-----------1-----|-------2-----------2-----|-------7-----------7-----|
D|-------------------------|-------------------------|-------0-----------0-----|-------------------------|
A|-------------------------|-------------------------|-------------------------|-------------------------|
E|-3-----------3-----------|-0-----------0-----------|-1-----------1-----------|-6-----------6-----------|

E|-------3-----------3-----|-------3-----------3-----|-------3-----------3-----|-------1-----------1-----|
B|-------3-----------3-----|-------3-----------3-----|-------3-----------3-----|-------1-----------1-----|
G|-------0-----------0-----|-------0-----------0-----|-------0-----------0-----|-------1-----------1-----|
D|-------------------------|-------------------------|-------------------------|-------------------------|
A|-------------------------|-------------------------|-------------------------|-------------------------|
E|-3-----------3-----------|-3-----------3-----------|-3-----------3-----------|-0-----------0-----------|

E|-------1-----------1-----|-------8-----------8-----|-------3-----------3-----|-------3-----------3-----|
B|-------1-----------1-----|-------6-----------6-----|-------3-----------3-----|-------3-----------3-----|
G|-------2-----------2-----|-------7-----------7-----|-------0-----------0-----|-------0-----------0-----|
D|-------0-----------0-----|-------------------------|-------------------------|-------------------------|
A|-------------------------|-------------------------|-------------------------|-------------------------|
E|-1-----------1-----------|-6-----------6-----------|-3-----------3-----------|-3-----------3-----------|

E|-------1-----------1-----|-------1-----------1-----|-------8-----------8-----|-------3-----------3-----|
B|-------1-----------1-----|-------1-----------1-----|-------6-----------6-----|-------3-----------3-----|
G|-------1-----------1-----|-------2-----------2-----|-------7-----------7-----|-------0-----------0-----|
D|-------------------------|-------0-----------0-----|-------------------------|-------------------------|
A|-------------------------|-------------------------|-------------------------|-------------------------|
E|-0-----------0-----------|-1-----------1-----------|-6-----------6-----------|-3-----------3-----------|

E|-1-----1-----0-----0---0---0---0---|-1-----1-----1-----1---1---1---1---|-0-------|
B|-3-----3-----1-----1---1---1---1---|-3-----3-----0-----0---0---0---0---|-1-------|
G|-2-----2-----2-----2---2---2---2---|-2-----2-----0-----0---0---0---0---|-2-------|
D|-0-----0-----2-----2---2---2---2---|-0-----0-----0-----0---0---0---0---|-2-------|
A|-------------0-----0---0---0---0---|-------------2-----2---2---2---2---|-0-------|
E|-----------------------------------|-------------3-----3---3---3---3---|---------|
Pink Floyd - Don't Leave Me Now
Pink Floyd - Don't Leave Me Now.gp3