Pink Floyd - Eclipse (3)

Pink Floyd



Title: Eclipse
Album: The Dark Side Of The Moom
Artist: Pink Floyd
Author: Roger Waters

Track 1: Electric Guitar 1 (Gilmour)
E|-------------------|-2----------2----------|-------------------|-0-----------2-----|
B|-------------------|-------3---------------|-------------3-----|-------3-----------|
G|-------------2-----|-----------------2-----|-------------------|-------------------|
D|-------4-----------|-----------------------|-------4-----------|-------------------|
A|-5-----------------|-----------------------|-3-----------------|-------------------|
E|-------------------|-----------------------|-------------------|-------------------|

E|-------------------|-0-----------------|-------------0-----|-------------------|-------2-----------|
B|-------------------|-------3-----------|-------------------|-2-----------------|-------------3-----|
G|-------------------|-------------0-----|-------------------|-------0-----------|-------------------|
D|-------------0-----|-------------------|-------2-----------|-------------2-----|-------------------|
A|-------3-----------|-------------------|-0-----------------|-------------------|-0-----------------|
E|-1-----------------|-------------------|-------------------|-------------------|-------------------|

E|-------------2-----|-------2-----------|-0-----------------|-------------------|-0-----------0---------|
B|-------------------|-------------------|-------3-----------|-------------------|-----------------------|
G|-2-----------------|-------------2-----|-------------2-----|-------------0-----|-------0----------0----|
D|-------0-----------|-------------------|-------------------|-------3-----------|-----------------------|
A|-------------------|-3-----------------|-------------------|-1-----------------|-----------------------|
E|-------------------|-------------------|-------------------|-------------------|-----------------------|

E|-------------------|-------------------|-------2-----------|-------------2-----|-------2-----------|
B|-------------------|-------2-----------|-------------3-----|-------------------|-------------------|
G|-------------2-----|-------------------|-------------------|-2-----------------|-------------2-----|
D|-------0-----------|-------------2-----|-------------------|-------0-----------|-------------------|
A|-0-----------------|-0-----------------|-0-----------------|-------------------|-3-----------------|
E|-------------------|-------------------|-------------------|-------------------|-------------------|

E|-0-----------------|-------------------|-0-----------0---------|-------------------|
B|-------3-----------|-------------------|-----------------------|-------------------|
G|-------------2-----|-------------0-----|-------0----------0----|-------------2-----|
D|-------------------|-------3-----------|-----------------------|-------0-----------|
A|-------------------|-1-----------------|-----------------------|-0-----------------|
E|-------------------|-------------------|-----------------------|-------------------|

E|-------------------|-------2-----------|-------------2-----|-------2-----------|-0-----------------|
B|-------2-----------|-------------3-----|-------------------|-------------------|-------3-----------|
G|-------------------|-------------------|-2-----------------|-------------2-----|-------------2-----|
D|-------------2-----|-------------------|-------0-----------|-------------------|-------------------|
A|-0-----------------|-0-----------------|-------------------|-3-----------------|-------------------|
E|-------------------|-------------------|-------------------|-------------------|-------------------|

E|-------------------|-0-----------0---------|-------------------|-------------------|
B|-------------------|-----------------------|-------------------|-------2-----------|
G|-------------0-----|-------0----------0----|-------------2-----|-------------------|
D|-------3-----------|-----------------------|-------0-----------|-------------2-----|
A|-1-----------------|-----------------------|-0-----------------|-0-----------------|
E|-------------------|-----------------------|-------------------|-------------------|

E|-------2-----------|-------------2-----|-------2-----------|-0-----------------|-------------------|
B|-------------3-----|-------------------|-------------------|-------3-----------|-------------3-----|
G|-------------------|-2-----------------|-------------2-----|-------------2-----|-------------------|
D|-------------------|-------0-----------|-------------------|-------------------|-------3-----------|
A|-0-----------------|-------------------|-3-----------------|-------------------|-1-----------------|
E|-------------------|-------------------|-------------------|-------------------|-------------------|

E|-0-----------0---------|-------------------|-------------------|-------2-----------|
B|-----------------------|-------------------|-------2-----------|-------------3-----|
G|-------0----------0----|-------------2-----|-------------------|-------------------|
D|-----------------------|-------0-----------|-------------2-----|-------------------|
A|-----------------------|-0-----------------|-0-----------------|-0-----------------|
E|-----------------------|-------------------|-------------------|-------------------|

E|-------------2-----|-------2-----------|-0-----------------|-------------------|-0-----------0---------|
B|-------------------|-------------------|-------3-----------|-------------3-----|-----------------------|
G|-2-----------------|-------------2-----|-------------2-----|-------------------|-------0----------0----|
D|-------0-----------|-------------------|-------------------|-------3-----------|-----------------------|
A|-------------------|-3-----------------|-------------------|-1-----------------|-----------------------|
E|-------------------|-------------------|-------------------|-------------------|-----------------------|

E|-------------------|-------------------|-------2-----------|-------------2-----|-------2-----------|
B|-------------------|-------2-----------|-------------3-----|-------------------|-------------------|
G|-------------2-----|-------------------|-------------------|-2-----------------|-------------2-----|
D|-------0-----------|-------------2-----|-------------------|-------0-----------|-------------------|
A|-0-----------------|-0-----------------|-0-----------------|-------------------|-3-----------------|
E|-------------------|-------------------|-------------------|-------------------|-------------------|

E|-0-----------------|-------------------|-0-----------0---------|-------------------|
B|-------3-----------|-------------3-----|-----------------------|-------------------|
G|-------------2-----|-------------------|-------0----------0----|-------------2-----|
D|-------------------|-------3-----------|-----------------------|-------0-----------|
A|-------------------|-1-----------------|-----------------------|-0-----------------|
E|-------------------|-------------------|-----------------------|-------------------|

E|-------------------|-------------------|-2-----------------|-------------------|-0-----------------|
B|-------2-----------|-------------3-----|-------3-----------|-------------3-----|-------3-----------|
G|-------------------|-------2-----------|-------------2-----|-------2-----------|-------------2-----|
D|-------------2-----|-0-----------------|-------------------|-------------------|-------------------|
A|-0-----------------|-------------------|-------------------|-3-----------------|-------------------|
E|-------------------|-------------------|-------------------|-------------------|-------------------|

E|-------------------|-0-----------0---------|-2-------|-2-------|-2-------|---------|
B|-------------------|-----------------------|-3-------|-3-------|-3-------|---------|
G|-------------0-----|-------0----------0----|-2-------|-2-------|-2-------|-%-------|
D|-------3-----------|-----------------------|---------|---------|---------|-%-------|
A|-1-----------------|-----------------------|---------|---------|---------|---------|
E|-------------------|-----------------------|---------|---------|---------|---------|
Pink Floyd - Eclipse (3)
Pink Floyd - Eclipse (3).gp4