Pink Floyd - Empty Spaces

Pink Floyd



Title: Empty Spaces
Album: The Wall
Artist: Pink Floyd
Author: Roger Waters

Track 1: Distortion Guitar
E|---------|---------|---------|-------------------|---------|---------|---------|-------------------|
B|-5-------|-7-------|-8-------|-7-------8----7----|-5-------|-5-------|-5-------|-7-------5----7----|
G|---------|---------|---------|-------------------|---------|---------|---------|-------------------|
D|---------|---------|---------|-------------------|---------|---------|---------|-------------------|
A|---------|---------|---------|-------------------|---------|---------|---------|-------------------|
E|---------|---------|---------|-------------------|---------|---------|---------|-------------------|

E|---------|-------------------|---------|---------|-19-----19--17--19-----|-19-----19--17--19-----|
B|-8-------|-7-------7---------|---------|---------|-----------------------|-----------------------|
G|---------|--------------7----|-9-------|-9-------|-----------------------|-----------------------|
D|---------|-------------------|---------|---------|-----------------------|-----------------------|
A|---------|-------------------|---------|---------|-----------------------|-----------------------|
E|---------|-------------------|---------|---------|-----------------------|-----------------------|

E|-14-----17---14-----|-------------17-17-19---|-14------|-15------|-17------|-19------|
B|--------------------|-17--19-----------------|---------|---------|---------|---------|
G|--------------------|------------------------|---------|---------|---------|---------|
D|--------------------|------------------------|---------|---------|---------|---------|
A|--------------------|------------------------|---------|---------|---------|---------|
E|--------------------|------------------------|---------|---------|---------|---------|

E|---------|---------|---------|-------------------|
B|---------|---------|---------|-------------------|
G|---------|---------|---------|-------------------|
D|---------|---------|---------|-------------------|
A|---------|---------|---------|-------------------|
E|-0-------|-2-------|-3-------|-2-------3----2----|
Pink Floyd - Empty Spaces
Pink Floyd - Empty Spaces.gp3