Pink Floyd - Fat Old Sun (avec solo)

Pink Floyd



Title: Fat old sun
Album: Atom heart mother
Artist: Pink Floyd
Author: Saldex

Track 1: voice
E|-1---0---------------------------1---0---------------------------|-1---0---------------------------1---0---------------------------|
B|---------3---1---0-----------------------3---1---0---------------|---------3---1---0-----------------------3---1---0---------------|
G|---------------------2---0---------------------------2---0-------|---------------------2---0---------------------------2---0-------|
D|-----------------------------3-------------------------------3---|-----------------------------3-------------------------------3---|
A|-----------------------------------------------------------------|-----------------------------------------------------------------|
E|-----------------------------------------------------------------|-----------------------------------------------------------------|

E|-1---0---------------------------1---0---------------------------|-1---0---------------------------1---0---------------------------|
B|---------3---1---0-----------------------3---1---0---------------|---------3---1---0-----------------------3---1---0---------------|
G|---------------------2---0---------------------------2---0-------|---------------------2---0---------------------------2---0-------|
D|-----------------------------3-------------------------------3---|-----------------------------3-------------------------------3---|
A|-----------------------------------------------------------------|-----------------------------------------------------------------|
E|-----------------------------------------------------------------|-----------------------------------------------------------------|

E|-1---0---------------------------1---0---------------------------|----------------------------|
B|---------3---1---0-----------------------3---1---0---------------|----------------------------|
G|---------------------2---0---------------------------2---0-------|-%------%----4----5----7----|
D|-----------------------------3-------------------------------3---|-%------%-------------------|
A|-----------------------------------------------------------------|----------------------------|
E|-----------------------------------------------------------------|----------------------------|

E|-------------------------------------|-----------------------------|-------------------------------------|
B|-------------------------------------|-----------------------------|-------------------------------------|
G|-7----7-----7----7----7----9----2----|-2------2----2----4----%-----|-%----5----5----7----5-----2----0----|
D|-------------------------------------|-----------------------%-----|-%-----------------------------------|
A|-------------------------------------|-----------------------------|-------------------------------------|
E|-------------------------------------|-----------------------------|-------------------------------------|

E|------------------------------------|---------------------------------|-------------------------------------|
B|------------------------------------|---------------------------------|-------------------------------------|
G|-0----------------------------%-----|-7----7-----7----7----9-----0----|-0-----0----4----4----%----%----4----|
D|-------2-------------0---2----%-----|---------------------------------|----------------------%----%---------|
A|------------3----3------------------|---------------------------------|-------------------------------------|
E|------------------------------------|---------------------------------|-------------------------------------|

E|---------------------------------|------------------------------------|---------|
B|---------------------------------|------------------------------------|---------|
G|-5-----7----5----5----0-----0----|-0----------------------------%-----|-%-------|
D|---------------------------------|-------2-------------0---2----%-----|-%-------|
A|---------------------------------|------------3----3------------------|---------|
E|---------------------------------|------------------------------------|---------|

E|------------------------|-------------------2----|--------------------|-----------------------------|
B|------------------------|-5------5----5----------|-3------0----3------|-------3----3----3-----5-----|
G|-%------4-----5----7----|------------------------|--------------------|-%---------------------------|
D|-%----------------------|------------------------|--------------------|-%---------------------------|
A|------------------------|------------------------|--------------------|-----------------------------|
E|------------------------|------------------------|--------------------|-----------------------------|

E|----------------------------------------|-0------0----0-----2----|--------------------|
B|-0--------0---0----------0----1----3----|------------------------|-3------0----3------|
G|------2-------------%-------------------|------------------------|--------------------|
D|--------------------%-------------------|------------------------|--------------------|
A|----------------------------------------|------------------------|--------------------|
E|----------------------------------------|------------------------|--------------------|

E|-------------------------------------|--------------------|--------------------|--------------------|
B|------0----1---------1-----1----1----|-3-----5-----3------|-5------3----3------|-5------3----3------|
G|-%---------------2-------------------|--------------------|--------------------|--------------------|
D|-%-----------------------------------|--------------------|--------------------|--------------------|
A|-------------------------------------|--------------------|--------------------|--------------------|
E|-------------------------------------|--------------------|--------------------|--------------------|

E|---------|---------|---------|---------|---------|---------|---------|---------|---------|
B|---------|---------|---------|---------|---------|---------|---------|---------|---------|
G|-%-------|-%-------|-%-------|-%-------|-%-------|-%-------|-%-------|-%-------|-%-------|
D|-%-------|-%-------|-%-------|-%-------|-%-------|-%-------|-%-------|-%-------|-%-------|
A|---------|---------|---------|---------|---------|---------|---------|---------|---------|
E|---------|---------|---------|---------|---------|---------|---------|---------|---------|

E|---------|---------|---------|---------|---------|---------|---------|---------|---------|
B|---------|---------|---------|---------|---------|---------|---------|---------|---------|
G|-%-------|-%-------|-%-------|-%-------|-%-------|-%-------|-%-------|-%-------|-%-------|
D|-%-------|-%-------|-%-------|-%-------|-%-------|-%-------|-%-------|-%-------|-%-------|
A|---------|---------|---------|---------|---------|---------|---------|---------|---------|
E|---------|---------|---------|---------|---------|---------|---------|---------|---------|

E|---------|---------|---------|---------|---------|---------|---------|---------|---------|
B|---------|---------|---------|---------|---------|---------|---------|---------|---------|
G|-%-------|-%-------|-%-------|-%-------|-%-------|-%-------|-%-------|-%-------|-%-------|
D|-%-------|-%-------|-%-------|-%-------|-%-------|-%-------|-%-------|-%-------|-%-------|
A|---------|---------|---------|---------|---------|---------|---------|---------|---------|
E|---------|---------|---------|---------|---------|---------|---------|---------|---------|

E|---------|---------|---------|---------|---------|---------|---------|---------|---------|
B|---------|---------|---------|---------|---------|---------|---------|---------|---------|
G|-%-------|-%-------|-%-------|-%-------|-%-------|-%-------|-%-------|-%-------|-%-------|
D|-%-------|-%-------|-%-------|-%-------|-%-------|-%-------|-%-------|-%-------|-%-------|
A|---------|---------|---------|---------|---------|---------|---------|---------|---------|
E|---------|---------|---------|---------|---------|---------|---------|---------|---------|

E|---------|---------|---------|---------|---------|---------|---------|---------|---------|
B|---------|---------|---------|---------|---------|---------|---------|---------|---------|
G|-%-------|-%-------|-%-------|-%-------|-%-------|-%-------|-%-------|-%-------|-%-------|
D|-%-------|-%-------|-%-------|-%-------|-%-------|-%-------|-%-------|-%-------|-%-------|
A|---------|---------|---------|---------|---------|---------|---------|---------|---------|
E|---------|---------|---------|---------|---------|---------|---------|---------|---------|

E|---------|---------|---------|---------|---------|---------|---------|---------|---------|
B|---------|---------|---------|---------|---------|---------|---------|---------|---------|
G|-%-------|-%-------|-%-------|-%-------|-%-------|-%-------|-%-------|-%-------|-%-------|
D|-%-------|-%-------|-%-------|-%-------|-%-------|-%-------|-%-------|-%-------|-%-------|
A|---------|---------|---------|---------|---------|---------|---------|---------|---------|
E|---------|---------|---------|---------|---------|---------|---------|---------|---------|
Pink Floyd - Fat Old Sun (avec solo)
Pink Floyd - Fat Old Sun (avec solo).gp4