Pink Floyd - Goodbye ble sky

Pink Floyd



Title: Goodbye Blue Sky
Album: The Wall
Artist: Pink Floyd
Author: Pink Floyd

Track 1: GUITARE 1
E|-----------------------------------------|-----------------------------------------|
B|-----------------------------------------|-----------------------------------------|
G|-----------------------------------------|-----------------------------------------|
D|------4---------5---------4---------4----|------4---------5---------4---------4----|
A|-5---------5---------5---------5---------|-5---------5---------5---------5---------|
E|-----------------------------------------|-----------------------------------------|

E|-----------------------------------------|-----------------------------------------|
B|-----------------------------------------|-----------------------------------------|
G|-----------------------------------------|-----------------------------------------|
D|------4---------5---------4---------4----|------4---------5---------4---------4----|
A|-5---------5---------5---------5---------|-5---------5---------5---------5---------|
E|-----------------------------------------|-----------------------------------------|

E|--------------------------------------------|-------------------------------------|
B|--------------------------------------------|-------------------------------------|
G|--------------------------------------------|-------------------------------------|
D|------4---------5---------4----2------------|------10--------10--------------9----|
A|-5---------5---------5--------------3---2---|-0---------0---------0-----0---------|
E|--------------------------------------------|-------------------------------------|

E|-------------------------|-------------------------------------|-------------------------|
B|-------------------------|-------------------------------------|-------------------------|
G|-------------------------|-------------------------------------|-------------------------|
D|-9-----9-----9-----9-----|------10--------10--------------9----|-9-----9-----9-----9-----|
A|-0-----0-----0-----0-----|-0---------0---------0-----0---------|-0-----0-----0-----0-----|
E|-------------------------|-------------------------------------|-------------------------|

E|-------------------------------------|-------------------------------------|-----------------------------------------|
B|-------------------------------------|-------------------------------------|-----------------------------------------|
G|-------------------------------------|-------------------------------------|-----------0-------------------0---------|
D|------10--------10--------------9----|-9----------9---------10--------11---|------4---------4---------4---------4----|
A|-0---------0---------0-----0---------|-0-----0---------0---------0---------|-5-------------------5-------------------|
E|-------------------------------------|-------------------------------------|-----------------------------------------|

E|-----------------------------------------|-------------------------------------|----------------------------------------|
B|-----------------------------------------|-------------------------------------|----------------------------------------|
G|-----------0-------------------0---------|------11--------9---------------7----|------------6---------6---7---6---------|
D|------4---------4---------4---------4----|-0---------0---------0-----0---------|-0-----0---------0------------0----0----|
A|-5-------------------5-------------------|-------------------------------------|----------------------------------------|
E|-----------------------------------------|-------------------------------------|----------------------------------------|

E|-----------------------------------------|-----------------------------------------|
B|-----------------------------------------|-----------------------------------------|
G|-----------0-------------------0---------|-----------0-------------------0---------|
D|------4---------4---------4---------4----|------4---------4---------4---------4----|
A|-2-------------------2-------------------|-2-------------------2-------------------|
E|-----------------------------------------|-----------------------------------------|

E|-----------------------------------------|-----------------------------|-----------------------------------------|
B|-----------------------------------------|-----------------------------|-----------------------------------------|
G|-----------------------------------------|-----------------------------|-----------------------------------------|
D|------10--------10--------10--------10---|------9----------------9-----|------10--------10--------10--------10---|
A|-0---------0---------0---------0---------|-0---------0-----0-----0-----|-0---------0---------0---------0---------|
E|-----------------------------------------|-----------------------------|-----------------------------------------|

E|-----------------------------|-----------------------------------------|-----------------------------------------|
B|-----------------------------|-----------------------------------------|-----------------------------------------|
G|-----------------------------|-----------------------------------------|-----------------------------------------|
D|------9----------------9-----|------10--------10--------10--------10---|-10---9---------9---------7---------7----|
A|-0---------0-----0-----0-----|-0---------0---------0---------0---------|-0---------0---------0---------0---------|
E|-----------------------------|-----------------------------------------|-----------------------------------------|

E|-----------------------------------------|-----------------------------------------|
B|-----------------------------------------|-----------------------------------------|
G|-----------------------------------------|-----------------------------------------|
D|------5---------5---------4---------4----|------2---------2---------0--------------|
A|-0---------0---------0---------0---------|-0---------0---------0---------0----4----|
E|-----------------------------------------|-----------------------------------------|

E|-----------------------------------------|-----------------------------------------|
B|-----------------------------------------|-----------------------------------------|
G|-----------0-------------------0---------|-----------0-------------------0---------|
D|------4---------4---------4---------4----|------4---------4---------4---------4----|
A|-2-------------------2-------------------|-2-------------------2-------------------|
E|-----------------------------------------|-----------------------------------------|

E|-----------------------------------------|-----------------------------------------|
B|-----------------------------------------|-----------------------------------------|
G|-----------------------------------------|-----------------------------------------|
D|------4---------5---------4---------4----|------4---------5---------4---------4----|
A|-5---------5---------5---------5---------|-5---------5---------5---------5---------|
E|-----------------------------------------|-----------------------------------------|

E|-------------------------------------|----------------------------------------|-----------------------------------------|
B|-------------------------------------|----------------------------------------|-----------------------------------------|
G|------11--------9---------------7----|------------6---------6---7---6---------|-----------0-------------------0---------|
D|-0---------0---------0-----0---------|-0-----0---------0------------0----0----|------4---------4---------4---------4----|
A|-------------------------------------|----------------------------------------|-2-------------------2-------------------|
E|-------------------------------------|----------------------------------------|-----------------------------------------|

E|-----------------------------------------|-----------------------------------------|
B|-----------------------------------------|-----------------------------------------|
G|-----------0-------------------0---------|-----------------------------------------|
D|------4---------4---------4---------4----|------10--------10--------10--------10---|
A|-2-------------------2-------------------|-0---------0---------0---------0---------|
E|-----------------------------------------|-----------------------------------------|

E|-----------------------------|-----------------------------------------|-------------------------------------|
B|-----------------------------|-----------------------------------------|-------------------------------------|
G|-----------------------------|-----------------------------------------|-------------------------------------|
D|------9----------------9-----|------10--------10--------10--------10---|-9----------9---------10--------11---|
A|-0---------0-----0-----0-----|-0---------0---------0---------0---------|-0-----0---------0---------0---------|
E|-----------------------------|-----------------------------------------|-------------------------------------|

E|-----------------------------------------|-----------------------------------------|
B|-----------------------------------------|-----------------------------------------|
G|-----------0-------------------0---------|-----------0-------------------0---------|
D|------4---------4---------4---------4----|------4---------4---------4---------4----|
A|-5-------------------5-------------------|-5-------------------5-------------------|
E|-----------------------------------------|-----------------------------------------|

E|-----------------------------|-----------------------------|---------------------------------|
B|-----------------------------|-----------------------------|---------------------------------|
G|-11---------9----------------|-12---------11---------------|------11--------9----------------|
D|-0-----0---------0-----0-----|-0-----0---------0-----0-----|-0---------0---------0-----0-----|
A|-----------------------------|-----------------------------|---------------------------------|
E|-----------------------------|-----------------------------|---------------------------------|

E|---------------------------------|-----------------------------|-------------------5----3----|
B|------------7----------7----5----|-----------------------------|-------------------7----5----|
G|-12----9----7----------7----5----|------------------------5----|-------------------7----5----|
D|-0---------------0-----0---------|-0-----0-----0-----0---------|-0-----0-----0-----0---------|
A|---------------------------------|-----------------------------|-----------------------------|
E|---------------------------------|-----------------------------|-----------------------------|

E|-----------------------------|-------------------------|-----------------------------------------|
B|-----------------------------|-------------------------|-----------------------------------------|
G|------------------------5----|-------------------------|-----------------------------------------|
D|-0-----0-----0-----0---------|-0-----0-----0-----0-----|------4---------5---------4---------4----|
A|-----------------------------|-------------------------|-5---------5---------5---------5---------|
E|-----------------------------|-------------------------|-----------------------------------------|

E|---------|
B|---------|
G|-%-------|
D|-%-------|
A|---------|
E|---------|
Pink Floyd - Goodbye ble sky
Pink Floyd - Goodbye ble sky.gp3