Pink Floyd - Goodbye Blue Sky

Pink Floyd



Title: Goodbye Blue Sky
Album: 
Artist: 
Author: Pink Floyd

Track 1: Guitar 1
E|-----------------------------------------|-----------------------------------------|
B|-----------------------------------------|-----------------------------------------|
G|----------------0------------------------|----------------0------------------------|
D|------4-------------------4---------4----|------4-------------------4---------4----|
A|-5---------5---------5---------5---------|-5---------5---------5---------5---------|
E|-----------------------------------------|-----------------------------------------|

E|-----------------------------------------|--------------------------------------------|
B|-----------------------------------------|--------------------------------------------|
G|----------------0------------------------|----------------0---------------------------|
D|------4-------------------4---------4----|------4-------------------4----2------------|
A|-5---------5---------5---------5---------|-5---------5---------5--------------3---2---|
E|-----------------------------------------|--------------------------------------------|

E|-------------------------------------|-------------------------|-------------------------------------|
B|-------------------------------------|-------------------------|-------------------------------------|
G|------5---------5----5----------4----|-4-----------------------|------5---------5---------------4----|
D|-------------------------------------|-------------------------|-------------------------------------|
A|-0---------0---------0-----0---------|-0-----0-----0-----0-----|-0---------0---------0-----0---------|
E|-------------------------------------|-------------------------|-------------------------------------|

E|-------------------------|-------------------------------------|-----------------------------------------|
B|-------------------------|-------------------------------------|-----------------------------------------|
G|-4-----------------------|------5---------5----5----------4----|-4-----5---5----4---------5---------6----|
D|-------------------------|-------------------------------------|-----------------------------------------|
A|-0-----0-----0-----0-----|-0---------0---------0-----0---------|-0---------0---------0---------0---------|
E|-------------------------|-------------------------------------|-----------------------------------------|

E|-----------------------------------------|-----------------------------------------|
B|-----------------------------------------|-----------------------------------------|
G|-----------0-------------------0---------|-----------0-------------------0---------|
D|------4---------4---------4---------4----|------4---------4---------4---------4----|
A|-5-------------------5-------------------|-5-------------------5-------------------|
E|-----------------------------------------|-----------------------------------------|

E|-------------------------------------|----------------------------------------|-----------------------------------------|
B|-------------------------------------|----------------------------------------|-----------------------------------------|
G|------11--------9---------------7----|------------6---------6---7---6---------|-----------0-------------------0---------|
D|-0---------0---------0-----0---------|-0-----0---------0-----------------0----|------4---------4---------4---------4----|
A|-------------------------------------|----------------------------------------|-2-------------------2-------------------|
E|-------------------------------------|----------------------------------------|-----------------------------------------|

E|-----------------------------------------|-------------------------------------|----------------------------------------|
B|-----------------------------------------|-------------------------------------|----------------------------------------|
G|-----------0-------------------0---------|------11--------9---------------7----|------------6---------6---7---6---------|
D|------4---------4---------4---------4----|-0---------0---------0-----0---------|-0-----0---------0-----------------0----|
A|-2-------------------2-------------------|-------------------------------------|----------------------------------------|
E|-----------------------------------------|-------------------------------------|----------------------------------------|

E|-----------------------------------------|-----------------------------------------|
B|-----------------------------------------|-----------------------------------------|
G|-----------0-------------------0---------|-----------0-------------------0---------|
D|------4---------4---------4---------4----|------4---------4---------4---------4----|
A|-2-------------------2-------------------|-2-------------------2-------------------|
E|-----------------------------------------|-----------------------------------------|

E|-------------------------------------|----------------------------------------|-----------------------------------------|
B|-------------------------------------|----------------------------------------|-----------------------------------------|
G|------11--------9---------------7----|------------6---------6---7---6---------|-----------0-------------------0---------|
D|-0---------0---------0-----0---------|-0-----0---------0-----------------0----|------4---------4---------4---------4----|
A|-------------------------------------|----------------------------------------|-2-------------------2-------------------|
E|-------------------------------------|----------------------------------------|-----------------------------------------|

E|-----------------------------------------|-----------------------------------------|
B|-----------------------------------------|-----------------------------------------|
G|-----------0-------------------0---------|------5---------5---------5---------5----|
D|------4---------4---------4---------4----|-----------------------------------------|
A|-2-------------------2-------------------|-0---------0---------0---------0---------|
E|-----------------------------------------|-----------------------------------------|

E|-----------------------------|-----------------------------------------|-----------------------------|
B|-----------------------------|-----------------------------------------|-----------------------------|
G|------4----4-----------------|------5---------5---------5---------5----|------4----4-----------------|
D|-----------------------------|-----------------------------------------|-----------------------------|
A|-0---------0-----0-----0-----|-0---------0---------0---------0---------|-0---------0-----0-----0-----|
E|-----------------------------|-----------------------------------------|-----------------------------|

E|-------------------------------------|-----------------------------------------|-----------------------------------------|
B|-------------------------------------|-----------------------------------------|-----------------------------------------|
G|------5---------5---------------5----|------4---------4---------2----2----2----|------0----0----0------------------------|
D|-------------------------------------|-----------------------------------------|--------------------------4----4----4----|
A|-0---------0---------0-----0---------|-0---------0---------0---------0---------|-0---------0---------0---------0---------|
E|-------------------------------------|-----------------------------------------|-----------------------------------------|

E|-----------------------------------------|-----------------------------------------|
B|-----------------------------------------|-----------------------------------------|
G|-----------------------------------------|-----------0-------------------0---------|
D|------2----2----2---------0----0---------|------4---------4---------4---------4----|
A|-0---------0---------0--------------3----|-2-------------------2-------------------|
E|-----------------------------------------|-----------------------------------------|

E|-----------------------------------------|-----------------------------------------|
B|-----------------------------------------|-----------------------------------------|
G|-----------0-------------------0---------|----------------0------------------------|
D|------4---------4---------4---------4----|------4-------------------4---------4----|
A|-2-------------------2-------------------|-5---------5---------5---------5---------|
E|-----------------------------------------|-----------------------------------------|

E|-----------------------------------------|-------------------------------------|----------------------------------------|
B|-----------------------------------------|-------------------------------------|----------------------------------------|
G|----------------0------------------------|------11--------9---------------7----|------------6---------6---7---6---------|
D|------4-------------------4---------4----|-0---------0---------0-----0---------|-0-----0---------0-----------------0----|
A|-5---------5---------5---------5---------|-------------------------------------|----------------------------------------|
E|-----------------------------------------|-------------------------------------|----------------------------------------|

E|-----------------------------------------|-----------------------------------------|
B|-----------------------------------------|-----------------------------------------|
G|-----------0-------------------0---------|-----------0-------------------0---------|
D|------4---------4---------4---------4----|------4---------4---------4---------4----|
A|-2-------------------2-------------------|-2-------------------2-------------------|
E|-----------------------------------------|-----------------------------------------|

E|-------------------------------------|----------------------------------------|-----------------------------------------|
B|-------------------------------------|----------------------------------------|-----------------------------------------|
G|------11--------9---------------7----|------------6---------6---7---6---------|-----------0-------------------0---------|
D|-0---------0---------0-----0---------|-0-----0---------0-----------------0----|------4---------4---------4---------4----|
A|-------------------------------------|----------------------------------------|-2-------------------2-------------------|
E|-------------------------------------|----------------------------------------|-----------------------------------------|

E|-----------------------------------------|-----------------------------------------|
B|-----------------------------------------|-----------------------------------------|
G|-----------0-------------------0---------|------5---------5---------5---------5----|
D|------4---------4---------4---------4----|-----------------------------------------|
A|-2-------------------2-------------------|-0---------0---------0---------0---------|
E|-----------------------------------------|-----------------------------------------|

E|-----------------------------|-----------------------------------------|-----------------------------|
B|-----------------------------|-----------------------------------------|-----------------------------|
G|------4----4-----------------|------5---------5---------5---------5----|------4----4-----------------|
D|-----------------------------|-----------------------------------------|-----------------------------|
A|-0---------0-----0-----0-----|-0---------0---------0---------0---------|-0---------0-----0-----0-----|
E|-----------------------------|-----------------------------------------|-----------------------------|

E|-------------------------------------|-------------------------------------|-----------------------------------------|
B|-------------------------------------|-------------------------------------|-----------------------------------------|
G|------5---------5---------------4----|------------4---------5----6----7----|-----------0-------------------0---------|
D|-------------------------------------|-------------------------------------|------4---------4---------4---------4----|
A|-0---------0---------0-----0---------|-0-----0---------0---------0---------|-5-------------------5-------------------|
E|-------------------------------------|-------------------------------------|-----------------------------------------|

E|-----------------------------------------|-----------------------------|-----------------------------|
B|-----------------------------------------|-7----------5----------------|-8----------7----------------|
G|-----------0-------------------0---------|-7----------6----------------|-9----------7----------------|
D|------4---------4---------4---------4----|-0-----0---------0-----0-----|-0-----0---------0-----0-----|
A|-5-------------------5-------------------|-----------------------------|-----------------------------|
E|-----------------------------------------|-----------------------------|-----------------------------|

E|-----------------------------|---------------------------------|-----------------------------|
B|-7----------5----------------|-8----------7----------7----5----|------------------------5----|
G|-7----------6----------------|-9----------7----------7----5----|------------------------5----|
D|-0-----0---------0-----0-----|-0-----0---------0-----0---------|-0-----0-----0-----0---------|
A|-----------------------------|---------------------------------|-----------------------------|
E|-----------------------------|---------------------------------|-----------------------------|

E|-----------------------------|-----------------------------|-------------------------|
B|-------------------7----5----|------------------------5----|-------------------------|
G|-------------------7----5----|------------------------5----|-------------------------|
D|-0-----0-----0-----0---------|-0-----0-----0-----0---------|-0-----0-----0-----0-----|
A|-----------------------------|-----------------------------|-------------------------|
E|-----------------------------|-----------------------------|-------------------------|

E|-----------------------------------------|-----------------------------------------|
B|-----------------------------------------|-----------------------------------------|
G|----------------0------------------------|----------------0------------------------|
D|------4-------------------4---------4----|------4-------------------4---------4----|
A|-5---------5---------5---------5---------|-5---------5---------5---------5---------|
E|-----------------------------------------|-----------------------------------------|

E|-----------------------------------------|-----------------------------------------|
B|-----------------------------------------|-----------------------------------------|
G|----------------0------------------------|----------------0------------------------|
D|------4-------------------4---------4----|------4-------------------4---------4----|
A|-5---------5---------5---------5---------|-5---------5---------5---------5---------|
E|-----------------------------------------|-----------------------------------------|

E|-----------------------------------------|-----------------------------------------|
B|-----------------------------------------|-----------------------------------------|
G|----------------0------------------------|----------------0------------------------|
D|------4-------------------4---------4----|------4-------------------4---------4----|
A|-5---------5---------5---------5---------|-5---------5---------5---------5---------|
E|-----------------------------------------|-----------------------------------------|
Pink Floyd - Goodbye Blue Sky
Pink Floyd - Goodbye Blue Sky.gp3