Pink Floyd - Goodbye Blue Sky (2)

Pink Floyd - Goodbye Blue Sky (2)

Pink Floyd



Title: Goodbye Blue Sky (2)
Album: The Wall
Artist: Pink Floyd
Author: Roger Waters

Track 1: Guitar 1
E|-------------------------------------|----------------------------------------|-----------------------------------------|
B|-------------------------------------|----------------------------------------|-----------------------------------------|
G|----------------0--------------------|----------------0-----------------------|------5----5----5----5----5---------4----|
D|------4---------5-----4---------4----|------4---------5-----4----2------------|------5----5----5----5--------------4----|
A|-5---------5---------------5---------|-5---------5--------------------3---2---|-0----0----0----0----0----0----0----0----|
E|-------------------------------------|----------------------------------------|-----------------------------------------|

E|--------------------------------|-----------------------------------------|-------------------------------------|
B|------------------------1-------|-----------------------------------------|-------------------------------------|
G|-4-----4-----4-----4--------%---|------5----5----5----5----5---------4----|-4----------4----4----5----5----6----|
D|-4-----4-----4-----4--------%---|------5----5----5----5--------------4----|-4----------4----4----5----5----6----|
A|-0-----0-----0-----0------------|-0----0----0----0----0----0----0----0----|-0-----0---------0---------0---------|
E|--------------------------------|-----------------------------------------|-------------------------------------|

E|-----------------------------------------|---------------------------------------|
B|-----------------------------------------|---------------------------------------|
G|-7---------0-------------------0---------|---------------------------------------|
D|-7----4---------4---------4---------4----|----------2---4----2-----0-------------|
A|---------------------5-------------------|-5----5------------------------2---0---|
E|-----------------------------------------|---------------------------------------|

E|-------------------------------------|--------------------------------------------|
B|------7----7----5----5----------3----|-3----3---------2----2----2---3---2----0----|
G|-------------------------------------|--------------------------------------------|
D|-0---------0---------0-----0---------|-0---------0---------0------------0---------|
A|-------------------------------------|--------------------------------------------|
E|-------------------------------------|--------------------------------------------|

E|-----------------------------------------|-----------------------------------------|
B|-----------------------------------------|-----------------------------------------|
G|-----------0-------------------0---------|-----------0-------------------0---------|
D|------4---------4---------4---------4----|------4---------4---------4---------4----|
A|-2-------------------2-------------------|-2-------------------2-------------------|
E|-----------------------------------------|-----------------------------------------|

E|-------------------------|-------------------------|-------------------------|-------------------------|
B|-------------------------|-------------------------|-------------------------|-------------------------|
G|-------------------------|-------------------------|-------------------------|-------------------------|
D|-0-----0-----0-----0-----|-0-----0-----0-----0-----|-0-----0-----0-----0-----|-0-----0-----0-----0-----|
A|-------------------------|-------------------------|-------------------------|-------------------------|
E|-------------------------|-------------------------|-------------------------|-------------------------|

E|-----------------------------|-----------------------------|---------------------------------|
B|------------------------5----|-5---------------------------|----------------------------5----|
G|------------------------5----|-5---------------------------|----------------------------5----|
D|-0-----0-----0-----0----0----|-0----0----0-----0-----0-----|-0----0----0-----0-----0----0----|
A|-----------------------------|-----------------------------|---------------------------------|
E|-----------------------------|-----------------------------|---------------------------------|

E|-------------------------|-------------------------------------|-------------------------------------|
B|-5-----------------------|-------------------------------------|-------------------------------------|
G|-5-----------------------|----------------0--------------------|----------------0--------------------|
D|-0-----0-----0-----0-----|------4---------5-----4---------4----|------4---------5-----4---------4----|
A|-------------------------|-5---------5---------------5---------|-5---------5---------------5---------|
E|-------------------------|-------------------------------------|-------------------------------------|

E|-------------------------------------|-2-----2-------|
B|-------------------------------------|-3-----3-------|
G|----------------0--------------------|-2-----2-------|
D|------4---------5-----4---------4----|-0-----0-------|
A|-5---------5---------------5---------|---------------|
E|-------------------------------------|---------------|
Pink Floyd - Goodbye Blue Sky (2)
Pink Floyd - Goodbye Blue Sky (2).gp3