Pink Floyd - Goodbye Blue Sky (3)

Pink Floyd



Title: Goodbye Blue Sky
Album: The Wall CD 1
Artist: Pink Floyd
Author: Pink Floyd

Track 1: Acoustic Guitar
E|-----------------------------------------|-----------------------------------------|
B|-----------------------------------------|-----------------------------------------|
G|----------------0------------------------|----------------0------------------------|
D|------4-------------------4---------4----|------4-------------------4---------4----|
A|-----------5-------------------5---------|-----------5-------------------5---------|
D|-0-------------------0-------------------|-0-------------------0-------------------|

E|-----------------------------------------|--------------------------------------------|
B|-----------------------------------------|--------------------------------------------|
G|----------------0------------------------|----------------0---------------------------|
D|------4-------------------4---------4----|------4--------------4----2-----------------|
A|-----------5-------------------5---------|-----------5-------------------3---2---0----|
D|-0-------------------0-------------------|-0------------------------------------------|

E|-------------------------------------|-----------------------------|-------------------------------------|
B|-------------------------------------|-----------------------------|-------------------------------------|
G|------5---------5---------------4----|-4----------------------5----|------5---------5---------------4----|
D|------5---------5---------------4----|-4---------------------------|------5---------5---------------4----|
A|-0---------0---------0-----0---------|-0-----0-----0-----0---------|-0---------0---------0-----0---------|
D|-------------------------------------|-----------------------------|-------------------------------------|

E|-----------------------------|-------------------------------------|-------------------------------------|
B|-----------------------------|-------------------------------------|-------------------------------------|
G|-4----------------------5----|------5---------5---------------4----|-4----------4---------5---------6----|
D|-4---------------------------|------5---------5---------------4----|-4-----------------------------------|
A|-0-----0-----0-----0---------|-0---------0---------0-----0---------|-0-----0---------0---------0---------|
D|-----------------------------|-------------------------------------|-------------------------------------|

E|-----------------------------------------|-----------------------------------------------|
B|-3---------------------------------------|-----------------------------------------------|
G|-----------0-------------------0---------|-----------------------------------------------|
D|------4---------4---------4---------4----|------0----4---5---4---------2-----------------|
A|-5-------------------5-------------------|---------------------------------------2---0---|
D|-----------------------------------------|-0---------0---0--------0---------0------------|

E|-------------------------------------|----------------------------------------|-----------------------------------------|
B|------7---------5---------------3----|------------2---------2---3---2---------|-----------------------------------------|
G|------7---------6---------------4----|------------2---------2------------4----|-----------0-------------------0---------|
D|-0---------0---------0-----0---------|-0-----0---------0------------0---------|------4---------4---------4---------4----|
A|-------------------------------------|----------------------------------------|-2-------------------2-------------------|
D|-------------------------------------|----------------------------------------|-----------------------------------------|

E|-----------------------------------------|-----------------------------------------|
B|-----------------------------------------|-----------------------------------------|
G|-----------0-------------------0---------|------5----5----5----5----5----5----5----|
D|------4---------4---------4---------4----|------5----5----5----5----5----5----5----|
A|-2-------------------2-------------------|-0---------0---------0---------0---------|
D|-----------------------------------------|-----------------------------------------|

E|-----------------------------|-----------------------------------------|-----------------------------|
B|-----------------------------|-----------------------------------------|-----------------------------|
G|-5----4----4-----------------|------5----5----5----5----5----5----5----|-5----4----4-----------------|
D|-5----4----4-----------------|------5----5----5----5----5----5----5----|-5----4----4-----------------|
A|-0---------0-----0-----0-----|-0---------0---------0---------0---------|-0---------0-----0-----0-----|
D|-----------------------------|-----------------------------------------|-----------------------------|

E|-----------------------------------------|-----------------------------------------|
B|-----------------------------------------|-----------------------------------------|
G|------5----5----5----5----5----5----5----|-5----4----4----4----4----2----2----2----|
D|------5----5----5----5----5----5----5----|-5----4----4----4----4----2----2----2----|
A|-0---------0---------0---------0---------|-0---------0---------0---------0---------|
D|-----------------------------------------|-----------------------------------------|

E|-----------------------------------------|-----------------------------------------|
B|-----------------------------------------|-----------------------------------------|
G|-2---------------------------------------|-----------------------------------------|
D|-2----5----5----5----5----4----4----4----|-4----2----2----2----2---------0---------|
A|-0----5----5----5----5----4----4----4----|-4----2----2----2----2----4---------4----|
D|-----------5---------5---------4---------|-4---------2---------2-------------------|

E|-----------------------------------------|-----------------------------------------|
B|-----------------------------------------|-----------------------------------------|
G|-----------0-------------------0---------|-----------0-------------------0---------|
D|------4---------4---------4---------4----|------4---------4---------4---------4----|
A|-2-------------------2-------------------|-2-------------------2-------------------|
D|-----------------------------------------|-----------------------------------------|

E|-----------------------------------------|-----------------------------------------|
B|-----------------------------------------|-----------------------------------------|
G|----------------0------------------------|----------------0------------------------|
D|------4-------------------4---------4----|------4-------------------4---------4----|
A|-----------5---------5---------5---------|-----------5---------5---------5---------|
D|-0---------------------------------------|-0---------------------------------------|

E|-------------------------------------|----------------------------------------|-----------------------------------------|
B|------7---------5---------------3----|------------2---------2---3---2---------|-----------------------------------------|
G|------7---------6---------------4----|------------2---------2------------4----|-----------0-------------------0---------|
D|-0---------0---------0-----0---------|-0-----0---------0------------0---------|------4---------4---------4---------4----|
A|-------------------------------------|----------------------------------------|-2-------------------2-------------------|
D|-------------------------------------|----------------------------------------|-----------------------------------------|

E|-----------------------------------------|-----------------------------------------|
B|-----------------------------------------|-----------------------------------------|
G|-----------0-------------------0---------|------5----5----5----5----5----5----5----|
D|------4---------4---------4---------4----|------5----5----5----5----5----5----5----|
A|-2-------------------2-------------------|-0---------0---------0---------0---------|
D|-----------------------------------------|-----------------------------------------|

E|-----------------------------|-----------------------------------------|-----------------------------|
B|-----------------------------|-----------------------------------------|-----------------------------|
G|-5----4----4-----------------|------5----5----5----5----5----5----5----|-5----4----4-----------------|
D|-5----4----4-----------------|------5----5----5----5----5----5----5----|-5----4----4-----------------|
A|-0---------0-----0-----0-----|-0---------0---------0---------0---------|-0---------0-----0-----0-----|
D|-----------------------------|-----------------------------------------|-----------------------------|

E|-------------------------------------|-------------------------------------|-----------------------------------------|
B|-------------------------------------|-------------------------------------|-3---------------------------------------|
G|------5---------5---------------4----|-4----------4---------5---------6----|-----------0-------------------0---------|
D|------5---------5---------------4----|-4-----------------------------------|------4---------4---------4---------4----|
A|-0---------0---------0-----0---------|-0-----0---------0---------0---------|-5-------------------5-------------------|
D|-------------------------------------|-------------------------------------|-----------------------------------------|

E|-----------------------------------------------|-----------------------------|-----------------------------|
B|-----------------------------------------------|-7----------5----------------|-8----------7----------------|
G|-----------------------------------------------|-7----------6----------------|-9----------7----------------|
D|------0----4---5---4---------2-----------------|-0-----0---------0-----0-----|-0-----0---------0-----0-----|
A|---------------------------------------2---0---|-----------------------------|-----------------------------|
D|-0---------0---0--------0---------0------------|-----------------------------|-----------------------------|

E|---------------------------------|---------------------------------|-----------------------------|
B|------7---------5----------------|-8----------7---------------5----|------------------------5----|
G|------7---------6----------------|-9----------7---------------5----|------------------------5----|
D|-0---------0---------0-----0-----|-0-----0---------0-----0---------|-0-----0-----0-----0---------|
A|---------------------------------|---------------------------------|-----------------------------|
D|---------------------------------|---------------------------------|-----------------------------|

E|-----------------------------|-----------------------------|--------------------------------|
B|------------------------5----|------------------------5----|--------------------------------|
G|------------------------5----|------------------------5----|--------------------------------|
D|-0-----0-----0-----0---------|-0-----0-----0-----0---------|-0-----0------------------------|
A|-----------------------------|-----------------------------|-------------3---2---0----------|
D|-----------------------------|-----------------------------|--------------------------3-----|

E|-----------------------------------------|-----------------------------------------|
B|-----------------------------------------|-----------------------------------------|
G|----------------0------------------------|----------------0------------------------|
D|------4-------------------4---------4----|------4-------------------4---------4----|
A|-----------5---------5---------5---------|-----------5---------5---------5---------|
D|-0---------------------------------------|-0---------------------------------------|
Pink Floyd - Goodbye Blue Sky (3)
Pink Floyd - Goodbye Blue Sky (3).gp4