Pink Floyd - Goodbye Cruel World

Pink Floyd



Title: Goodbye Cruel World 
Album: The Wall
Artist: Pink Floyd
Author: Roger waters

Track 1: Bass
G|-------------------------|-------------------------|-------------------------|-------------------2-----|
D|-------------------------|-------------------------|-------5-----------5-----|-------------------------|
A|-------5-----------5-----|-------5-----------5-----|-------------------------|-------5-----0-----------|
D|-0-----------0-----------|-0-----------0-----------|-5-----------5-----------|-0-----------------------|

G|-------------------------|-------------------------|-------------------------|-------------------2-----|
D|-------------------------|-------------------------|-------5-----------5-----|-------------------------|
A|-------5-----------5-----|-------5-----------5-----|-------------------------|-------5-----0-----------|
D|-0-----------0-----------|-0-----------0-----------|-5-----------5-----------|-0-----------------------|

G|----------------------|
D|---------%-------%----|
A|---------%-------%----|
D|-0---X----------------|
Pink Floyd - Goodbye Cruel World
Pink Floyd - Goodbye Cruel World.gp3