Pink Floyd - Grantchester Meadows

Pink Floyd



Title: Grantchester Meadows
Album: 
Artist: Pink Floyd
Author: Saldex

Track 1: Guitar 1
E|-------------------------|-------------------------|-------------------------|-----------------------------------------------------|
B|-------------------------|-------------------------|-------------------------|-5----7---5---4----5---4-----------------------------|
G|-%-----4-----6-----7-----|-6-----4-----2-----6-----|-6-----4-----4-----4-----|---------------------------6----8---6---4----6---4---|
D|-%-----6-----7-----9-----|-7-----6-----4-----7-----|-7-----6-----6-----6-----|-----------------------------------------------------|
A|-------------------------|-------------------------|-------------------------|-----------------------------------------------------|
E|-------------------------|-------------------------|-------------------------|-----------------------------------------------------|

E|-------------------------|-------------------------|----------------------------|
B|-------------------------|-------------------------|----------------------------|
G|-4-----4-----6-----7-----|-6-----4-----2-----6-----|-6----4----4------2----4----|
D|-6-----6-----7-----9-----|-7-----6-----4-----7-----|-7----6----6------4----6----|
A|-------------------------|-------------------------|----------------------------|
E|-------------------------|-------------------------|----------------------------|

E|----------------------------------------------|-------------------------|-------------------------|
B|-------4----5---4-----------------------------|-5-----5-----7-----8-----|-10----12----10----8-----|
G|-4------------------6----8---6---4----6---4---|-6-----6-----7-----9-----|-11----12----11----9-----|
D|-6--------------------------------------------|-------------------------|-------------------------|
A|----------------------------------------------|-------------------------|-------------------------|
E|----------------------------------------------|-------------------------|-------------------------|

E|----------------------------|-------5----7---5-----------------------------|-------------------------|
B|-8----7----7------5----7----|--------------------9----10--9---7----9---7---|-------------------------|
G|-9----7----7------6----7----|-7--------------------------------------------|-%-----4-----6-----7-----|
D|----------------------------|-7--------------------------------------------|-%-----6-----7-----9-----|
A|----------------------------|----------------------------------------------|-------------------------|
E|----------------------------|----------------------------------------------|-------------------------|

E|-------------------------|----------------------------|----------------------------------------------|
B|-------------------------|----------------------------|-------4----5---4-----------------------------|
G|-6-----4-----2-----6-----|-6------4----4----2----4----|-4------------------6----8---6---4----6---4---|
D|-7-----6-----4-----7-----|-7------6----6----4----6----|-6--------------------------------------------|
A|-------------------------|----------------------------|----------------------------------------------|
E|-------------------------|----------------------------|----------------------------------------------|

E|-------------------------------------|-----------------------------------------|-------------------------|
B|-------5----5----5----5----5----5----|-3----3----3----3----2----2----2---------|-------------------------|
G|-%-----6---------6-------------------|-4-------------------2--------------2----|-%-----4-----------4-----|
D|-%-----------------------------------|-----------------------------------------|-%-----6-----7-----6-----|
A|-------------------------------------|-----------------------------------------|-------------------------|
E|-------------------------------------|-----------------------------------------|-------------------------|

E|---------|-------------------------------------|-----------------------------------------|
B|---------|-------5----5----5----5----5----5----|-3----3----3----3----2----2----2---------|
G|-4-------|-%-----6---------6-------------------|-4-------------------2--------------2----|
D|-6-------|-%-----------------------------------|-----------------------------------------|
A|---------|-------------------------------------|-----------------------------------------|
E|---------|-------------------------------------|-----------------------------------------|

E|--------------------|------------------------|
B|--------------------|------------------------|
G|-4-----4-----%------|-%------%-----4----4----|
D|-6-----------%------|-%------%---------------|
A|--------------------|------------------------|
E|--------------------|------------------------|
Pink Floyd - Grantchester Meadows
Pink Floyd - Grantchester Meadows.gp3