Pink Floyd - Have a Cigar

Pink Floyd



Title: Have a cigar
Album: 
Artist: Pink Floyd
Author: 

Track 1: Guitar, Treble Clef
E|---------|---------|---------|---------|---------|---------|---------|---------|---------|
B|---------|---------|---------|---------|---------|---------|---------|---------|---------|
G|-%-------|-%-------|-%-------|-%-------|-%-------|-%-------|-%-------|-%-------|-%-------|
D|-%-------|-%-------|-%-------|-%-------|-%-------|-%-------|-%-------|-%-------|-%-------|
A|---------|---------|---------|---------|---------|---------|---------|---------|---------|
E|---------|---------|---------|---------|---------|---------|---------|---------|---------|

E|---------|---------|---------|---------|---------|---------|---------|---------|---------|
B|---------|---------|---------|---------|---------|---------|---------|---------|---------|
G|-%-------|-%-------|-%-------|-%-------|-%-------|-%-------|-%-------|-%-------|-%-------|
D|-%-------|-%-------|-%-------|-%-------|-%-------|-%-------|-%-------|-%-------|-%-------|
A|---------|---------|---------|---------|---------|---------|---------|---------|---------|
E|---------|---------|---------|---------|---------|---------|---------|---------|---------|

E|---------|---------|---------|---------|---------|---------|---------|---------|---------|
B|---------|---------|---------|---------|---------|---------|---------|---------|---------|
G|-%-------|-%-------|-%-------|-%-------|-%-------|-%-------|-%-------|-%-------|-%-------|
D|-%-------|-%-------|-%-------|-%-------|-%-------|-%-------|-%-------|-%-------|-%-------|
A|---------|---------|---------|---------|---------|---------|---------|---------|---------|
E|---------|---------|---------|---------|---------|---------|---------|---------|---------|

E|---------|--------15------15------15---15------|-15---15------15---15------15------15------15------15---|
B|---------|-------------------------------------|--------------------------------------------------------|
G|-%-------|-%-----------%-------%----------%----|---------%------------%---------%-------%-------%-------|
D|-%-------|-%-----------%-------%----------%----|---------%------------%---------%-------%-------%-------|
A|---------|-------------------------------------|--------------------------------------------------------|
E|---------|-------------------------------------|--------------------------------------------------------|

E|-15------15------15------15------15---15------15---15------|---------|------15------15------15------15------15---------|
B|-----------------------------------------------------------|---------|-------------------------------------------------|
G|------%-------%-------%-------%----------%------------%----|-%-------|-%---------%-------%-------%-------%--------%----|
D|------%-------%-------%-------%----------%------------%----|-%-------|-%---------%-------%-------%-------%--------%----|
A|-----------------------------------------------------------|---------|-------------------------------------------------|
E|-----------------------------------------------------------|---------|-------------------------------------------------|

E|--------15---15------12------12------12------|-12------12------12------12------14------14------14------12------|
B|---------------------------------------------|-----------------------------------------------------------------|
G|-%----------------%-------%-------%-------%--|------%-------%-------%-------%-------%-------%-------%-------%--|
D|-%----------------%-------%-------%-------%--|------%-------%-------%-------%-------%-------%-------%-------%--|
A|---------------------------------------------|-----------------------------------------------------------------|
E|---------------------------------------------|-----------------------------------------------------------------|

E|-14------14------12------10------12---12------12---12------|---------|---------|---------|
B|-----------------------------------------------------------|---------|---------|---------|
G|------%-------%-------%-------%----------%------------%----|-%-------|-%-------|-%-------|
D|------%-------%-------%-------%----------%------------%----|-%-------|-%-------|-%-------|
A|-----------------------------------------------------------|---------|---------|---------|
E|-----------------------------------------------------------|---------|---------|---------|

E|--------15----15----15------15------15------15------|-15------15------15------15----15----15------15------15---15------|
B|----------------------------------------------------|------------------------------------------------------------------|
G|-%---------%-----%-------%-------%-------%-------%--|------%-------%-------%-----%-----%-------%-------%----------%----|
D|-%---------%-----%-------%-------%-------%-------%--|------%-------%-------%-----%-----%-------%-------%----------%----|
A|----------------------------------------------------|------------------------------------------------------------------|
E|----------------------------------------------------|------------------------------------------------------------------|

E|-15---15------15---15------12---12------------|---------|--------15------15------15------15------15------|
B|----------------------------------------------|---------|------------------------------------------------|
G|---------%------------%------------%-----%----|-%-------|-%-----------%-------%-------%-------%-------%--|
D|---------%------------%------------%-----%----|-%-------|-%-----------%-------%-------%-------%-------%--|
A|----------------------------------------------|---------|------------------------------------------------|
E|----------------------------------------------|---------|------------------------------------------------|

E|-15------15------15------15------15------12------12------10------|-12---12----------15------14------14------14---14------|
B|-----------------------------------------------------------------|-------------------------------------------------------|
G|------%-------%-------%-------%-------%-------%-------%-------%--|---------%-----%-------%-------%-------%----------%----|
D|------%-------%-------%-------%-------%-------%-------%-------%--|---------%-----%-------%-------%-------%----------%----|
A|-----------------------------------------------------------------|-------------------------------------------------------|
E|-----------------------------------------------------------------|-------------------------------------------------------|

E|------14------14---14------12---12------------|---------|---------|---------|------12------12------10------12------12------12------14---|
B|----------------------------------------------|---------|---------|---------|-----------------------------------------------------------|
G|-%---------%----------%------------%-----%----|-%-------|-%-------|-%-------|-%---------%-------%-------%-------%-------%-------%-------|
D|-%---------%----------%------------%-----%----|-%-------|-%-------|-%-------|-%---------%-------%-------%-------%-------%-------%-------|
A|----------------------------------------------|---------|---------|---------|-----------------------------------------------------------|
E|----------------------------------------------|---------|---------|---------|-----------------------------------------------------------|

E|-14----------------15---15------------12----|-12--------------12------|-12------12------14------14------14------14----14----14------|
B|---------15--15-----------------------------|-------------------------|-------------------------------------------------------------|
G|------%---------%----------%-----%----------|------%-------%-------%--|------%-------%-------%-------%-------%-----------%-------%--|
D|------%---------%----------%-----%----------|------%-------%-------%--|------%-------%-------%-------%-------%-----------%-------%--|
A|--------------------------------------------|-------------------------|-------------------------------------------------------------|
E|--------------------------------------------|-------------------------|-------------------------------------------------------------|

E|-15------|-15------|-15-----------14---14------|-12-----12------14------12------10---|
B|---------|---------|---------------------------|-------------------------------------|
G|---------|---------|--------%-------------%----|-------------%-------%-------%-------|
D|---------|---------|--------%-------------%----|-------------%-------%-------%-------|
A|---------|---------|---------------------------|-------------------------------------|
E|---------|---------|---------------------------|-------------------------------------|

E|-10----10------------------|---------|---------|---------|---------|---------|-15---15------15---15------15---15------15---15------|
B|---------------------------|---------|---------|---------|---------|---------|-----------------------------------------------------|
G|------------%------%----%--|-%-------|-%-------|-%-------|-%-------|-%-------|---------%------------%------------%------------%----|
D|------------%------%----%--|-%-------|-%-------|-%-------|-%-------|-%-------|---------%------------%------------%------------%----|
A|---------------------------|---------|---------|---------|---------|---------|-----------------------------------------------------|
E|---------------------------|---------|---------|---------|---------|---------|-----------------------------------------------------|

E|--------------15------|-15------15------15------15------15------15------------|--------------15------|
B|----------------------|-------------------------------------------------------|----------------------|
G|-%-------%---------%--|------%-------%-------%-------%-------%-------%-----%--|-%-------%---------%--|
D|-%-------%---------%--|------%-------%-------%-------%-------%-------%-----%--|-%-------%---------%--|
A|----------------------|-------------------------------------------------------|----------------------|
E|----------------------|-------------------------------------------------------|----------------------|

E|-15------15------15------15------15------15------15------15---|-15------12------12------12------12------12------12------12------|
B|--------------------------------------------------------------|-----------------------------------------------------------------|
G|------%-------%-------%-------%-------%-------%-------%-------|------%-------%-------%-------%-------%-------%-------%-------%--|
D|------%-------%-------%-------%-------%-------%-------%-------|------%-------%-------%-------%-------%-------%-------%-------%--|
A|--------------------------------------------------------------|-----------------------------------------------------------------|
E|--------------------------------------------------------------|-----------------------------------------------------------------|

E|-14------14------14------12------14---14------12---12------|-12---12--------------|
B|-----------------------------------------------------------|----------------------|
G|------%-------%-------%-------%----------%------------%----|---------%-------%----|
D|------%-------%-------%-------%----------%------------%----|---------%-------%----|
A|-----------------------------------------------------------|----------------------|
E|-----------------------------------------------------------|----------------------|

E|---------|---------|--------------15----15----|-15----15----15----15----15------15------17---17------15---15------|
B|---------|---------|--------------------------|-------------------------------------------------------------------|
G|-%-------|-%-------|-%-------%-------%-----%--|----%-----%-----%-----%-------%-------%----------%------------%----|
D|-%-------|-%-------|-%-------%-------%-----%--|----%-----%-----%-----%-------%-------%----------%------------%----|
A|---------|---------|--------------------------|-------------------------------------------------------------------|
E|---------|---------|--------------------------|-------------------------------------------------------------------|

E|-15------15------15---15------15---15------15---15------|-15------15------15------15------15---15------------|
B|--------------------------------------------------------|----------------------------------------------------|
G|------%-------%----------%------------%------------%----|------%-------%-------%-------%----------%-----%----|
D|------%-------%----------%------------%------------%----|------%-------%-------%-------%----------%-----%----|
A|--------------------------------------------------------|----------------------------------------------------|
E|--------------------------------------------------------|----------------------------------------------------|

E|---------15------15------|-15------15------15------15----15----15------15------15------|
B|-------------------------|-------------------------------------------------------------|
G|-%------------%-------%--|------%-------%-------%-----------%-------%-------%-------%--|
D|-%------------%-------%--|------%-------%-------%-----------%-------%-------%-------%--|
A|-------------------------|-------------------------------------------------------------|
E|-------------------------|-------------------------------------------------------------|

E|-15------12------12---10------12------12------15------15------|-14---14------14------14------14------14------12------10------|
B|--------------------------------------------------------------|--------------------------------------------------------------|
G|------%-------%------------%-------%-------%-------%-------%--|---------%---------%-------%-------%-------%-------%-------%--|
D|------%-------%------------%-------%-------%-------%-------%--|---------%---------%-------%-------%-------%-------%-------%--|
A|--------------------------------------------------------------|--------------------------------------------------------------|
E|--------------------------------------------------------------|--------------------------------------------------------------|

E|-12---12--------------|---------|---------|-------------12------12------10------|
B|----------------------|---------|---------|-------------------------------------|
G|---------%-------%----|-%-------|-%-------|-%------%---------%-------%-------%--|
D|---------%-------%----|-%-------|-%-------|-%------%---------%-------%-------%--|
A|----------------------|---------|---------|-------------------------------------|
E|----------------------|---------|---------|-------------------------------------|

E|-12------12------12------14----14--------------15---15------|-------12----12-------------|
B|-------------------------------------15--15-----------------|----------------------------|
G|------%-------%-------%-----------%---------%----------%----|-%----------------%------%--|
D|------%-------%-------%-----------%---------%----------%----|-%----------------%------%--|
A|------------------------------------------------------------|----------------------------|
E|------------------------------------------------------------|----------------------------|

E|--------12------12------12------14------14------|-14------14----14----14------15-----|
B|------------------------------------------------|------------------------------------|
G|-%-----------%-------%-------%-------%-------%--|------%-----------%-------%---------|
D|-%-----------%-------%-------%-------%-------%--|------%-----------%-------%---------|
A|------------------------------------------------|------------------------------------|
E|------------------------------------------------|------------------------------------|

E|-15------|-15------|-------14---14------12-----|-12------14------12------10---10----10-----------|
B|---------|---------|---------------------------|-------------------------------------------------|
G|---------|---------|-%-------------%-----------|------%-------%-------%------------------%----%--|
D|---------|---------|-%-------------%-----------|------%-------%-------%------------------%----%--|
A|---------|---------|---------------------------|-------------------------------------------------|
E|---------|---------|---------------------------|-------------------------------------------------|

E|---------|---------|
B|---------|---------|
G|-%-------|-%-------|
D|-%-------|-%-------|
A|---------|---------|
E|---------|---------|
Pink Floyd - Have a Cigar
Pink Floyd - Have a Cigar.gp3