Pink Floyd - Have a Cigar (2)

Pink Floyd



Title: Have a Cigar
Album: 
Artist: Pink Floyd
Author: 

Track 1: Guitar 1
E|---------------------------|-----------------------------------------|---------------------------------|
B|------X---X---X---X---X----|-----------------------------------------|---------------------------------|
G|-%----X---X---X---X---X----|--------------------------%----%---------|-%-------------------------------|
D|-%----X---X---X---X---X----|------2--------------2----%----%----2----|-%----2--------------0-----------|
A|------X---X---X---X---X----|------2--------------2--------------2----|------2--------------------------|
E|------X---X---X---X---X----|-0---------0----3------------------------|-----------0----3---------3------|

E|-----------------------------------------|-----------------------------------------------|
B|-----------------------------------------|-----------------------------------------------|
G|--------------------------%----%---------|-----------------------------------------------|
D|------2--------------2----%----%----2----|-2--------------0----X---X---X---X---X---------|
A|------2--------------2--------------2----|-2-------------------X---X---X---X---X---------|
E|-0---------0----3------------------------|------0----3---------X---X---X---X---X----0----|

E|-----------------------------------------|---------|------------------------|---------------------------------|
B|-----------------------------------------|---------|------------------------|---------------------------------|
G|--------------------------%----%---------|-%-------|-%------%-----%---------|---------------------------------|
D|------2--------------2----%----%----2----|-%-------|-%------%-----%----2----|-2----0--------------------------|
A|------2--------------2--------------2----|---------|------------------------|-----------2----1----0-----------|
E|-0---------0----3------------------------|---------|------------------------|--------------------------3------|

E|------------------------|---------------|------------------------|---------------------|
B|------------------------|---------------|------------------------|---------------------|
G|-%------%-----%----2----|-2------2------|-2----2----%-----%------|---------------------|
D|-%------%-----%---------|---------------|-----------%-----%------|-2------4------5-----|
A|------------------------|---------------|------------------------|---------------------|
E|------------------------|---------------|------------------------|---------------------|

E|---------------|---------|---------|---------------------|------------------------------|
B|---------------|---------|---------|---------------------|--------------12--12--12--12--|
G|---------------|-%-------|-%-------|---------------------|--------%-----12--12--12--12--|
D|---------------|-%-------|-%-------|--------5------4-----|-2------%---------------------|
A|-3-------3-----|---------|---------|-3-------------------|------------------------------|
E|---------------|---------|---------|---------------------|------------------------------|

E|--------------------|---------|---------------------|---------|---------|---------|
B|-12-----------------|---------|---------------------|---------|---------|---------|
G|-12----%-----%------|-%-------|---------------------|---------|---------|---------|
D|-------%-----%------|-%-------|-2------4------5-----|---------|---------|---------|
A|--------------------|---------|---------------------|-3-------|-3-------|-3-------|
E|--------------------|---------|---------------------|---------|---------|---------|

E|---------|---------------------|---------------------------------------|---------------|
B|---------|---------------------|---------------------------------------|---------------|
G|---------|---------------------|---------------------------------------|--------%------|
D|-0-------|-5------4------------|---------------------------------------|--------%------|
A|---------|---------------7-----|-7----5------4-----3----4----5----6----|-7-------------|
E|---------|---------------------|---------------------------------------|---------------|

E|-----------------------------------------------|-----------------------------------------|
B|-----------------------------------------------|-----------------------------------------|
G|-----------------------------------------------|--------------------------%----%---------|
D|-2--------------0----X---X---X---X---X---------|------2--------------2----%----%----2----|
A|-2-------------------X---X---X---X---X---------|------2--------------2--------------2----|
E|------0----3---------X---X---X---X---X----0----|-0---------0----3------------------------|

E|-----------------------------------------------|-----------------------------------------|
B|-----------------------------------------------|-----------------------------------------|
G|-----------------------------------------------|--------------------------%----%---------|
D|-2--------------0----X---X---X---X---X---------|------2--------------2----%----%----2----|
A|-2-------------------X---X---X---X---X---------|------2--------------2--------------2----|
E|------0----3---------X---X---X---X---X----0----|-0---------0----3------------------------|

E|---------------------------------|-----------------------------------------|---------------------------------|
B|---------------------------------|-----------------------------------------|---------------------------------|
G|-%-------------------------------|--------------------------%----%---------|-%-------------------------------|
D|-%----2--------------0-----------|------2--------------2----%----%----2----|-%----2--------------0-----------|
A|------2--------------------------|------2--------------2--------------2----|------2--------------------------|
E|-----------0----3---------3------|-0---------0----3------------------------|-----------0----3---------3------|

E|-------------------------------------|-------------------------------------|-------------------------------------|
B|-------------------------------------|-----------------1-------------------|-----------------3-------------------|
G|--------------------------%----%-----|------------0---------0---------0----|------------0---------0--------------|
D|------2--------------2----%----%-----|-------2-------------------2---------|-------4------------------------0----|
A|------2--------------2---------------|-3-----------------------------------|-5-------------------------4---------|
E|-0---------0----3--------------------|-------------------------------------|-------------------------------------|

E|-----------------------------------------|---------------------------------|-----------------------------------------|
B|-----------------------------------------|---------------------------------|-----------------------------------------|
G|--------------------------%----%---------|-%-------------------------------|--------------------------%----%---------|
D|------2--------------2----%----%----2----|-%----2--------------0-----------|------2--------------2----%----%----2----|
A|------2--------------2--------------2----|------2--------------------------|------2--------------2--------------2----|
E|-0---------0----3------------------------|-----------0----3---------3------|-0---------0----3------------------------|

E|---------------------------------|-----------------------------------------|---------------------------------|
B|---------------------------------|-----------------------------------------|---------------------------------|
G|-%-------------------------------|--------------------------%----%---------|-%-------------------------------|
D|-%----2--------------0-----------|------2--------------2----%----%----2----|-%----2--------------0-----------|
A|------2--------------------------|------2--------------2--------------2----|------2--------------------------|
E|-----------0----3---------3------|-0---------0----3------------------------|-----------0----3---------3------|

E|-----------------------------------------|---------------------------------|-------------------------------------|
B|-----------------------------------------|---------------------------------|-------------------------------------|
G|--------------------------%----%---------|-%-------------------------------|--------------------------%----%-----|
D|------2--------------2----%----%----2----|-%----2--------------0-----------|------2--------------2----%----%-----|
A|------2--------------2--------------2----|------2--------------------------|------2--------------2---------------|
E|-0---------0----3------------------------|-----------0----3---------3------|-0---------0----3--------------------|

E|-------------------------------------|-------------------------------------|-----------------------------------------|
B|-----------------1-------------------|-----------------3-------------------|-----------------------------------------|
G|------------0---------0---------0----|------------0---------0--------------|--------------------------%----%---------|
D|-------2-------------------2---------|-------4------------------------0----|------2--------------2----%----%----2----|
A|-3-----------------------------------|-5-------------------------4---------|------2--------------2--------------2----|
E|-------------------------------------|-------------------------------------|-0---------0----3------------------------|

E|---------------------------------|-----------------------------------------|---------------------------------|
B|---------------------------------|-----------------------------------------|---------------------------------|
G|-%-------------------------------|--------------------------%----%---------|-%-------------------------------|
D|-%----2--------------0-----------|------2--------------2----%----%----2----|-%----2--------------0-----------|
A|------2--------------------------|------2--------------2--------------2----|------2--------------------------|
E|-----------0----3---------3------|-0---------0----3------------------------|-----------0----3---------3------|

E|-0-----X----0----0-----0------|---------------------------------|--------|-2----2----2----2---------2----|
B|-1-----X----3----3-----0------|-----------1-----1----------1----|-1------|-3----3----3----3---------3----|
G|-0-----X----0----0-----0------|------0----------------0---------|--------|-2----2----2----2----%----2----|
D|-2-----X----4----4-----2------|-2-------------------------------|--------|-0----0----0----0----%----0----|
A|-3-----X----5----5-----2------|---------------------------------|--------|-------------------------------|
E|-----------------------0------|---------------------------------|--------|-------------------------------|

E|---------|------------------------|--------------------------|-------------------------------------|
B|-0-------|-0----------------------|--------------------------|-5-----------------------------------|
G|-0-------|-0----------------------|---------X------------5---|------5---------5----5---------5-----|
D|-0-------|-0----------------------|---------X--------5-------|-----------5-------------------5-----|
A|-2-------|-2-----------5----5-----|-7-------X----3-----------|--------------------------X----------|
E|-3-------|-3------7---------------|--------------------------|-------------------------------------|

E|-----------------------------|----------------------------------------|-----------------------------------------|
B|-0-----------0---------------|----------------------------------------|-----------------------------------------|
G|-0-----------0----%----%-----|-4----3----%-----3----2-----------------|--------------------------%----%---------|
D|-0-----------0----%----%-----|-5----4----%-----4----3----X---X---X----|------2--------------2----%----%----2----|
A|-2-----------2---------------|-5----4----------4----3----X---X---X----|------2--------------2--------------2----|
E|-3-----3-----3---------------|-3----2----------2----1----X---X---X----|-0---------0----3------------------------|

E|---------------------------------|-------------------------------------|---------------------------------|
B|---------------------------------|-------------------------------------|---------------------------------|
G|-%-------------------------------|--------------------------%----------|---------------------------------|
D|-%----2--------------0-----------|------2--------------2----%-----2----|-2----0--------------------------|
A|------2--------------------------|------2--------------2---------------|-----------2----0----------0-----|
E|-----------0----3---------3------|-0---------0----3--------------------|---------------------3-----------|

E|-----------------------------------------|---------------------------------|-----------------------------------------|
B|-----------------------------------------|---------------------------------|-----------------------------------------|
G|--------------------------%----%---------|-%-------------------------------|--------------------------%----%---------|
D|------2--------------2----%----%----2----|-%----2--------------0-----------|------2--------------2----%----%----2----|
A|------2--------------2--------------2----|------2--------------------------|------2--------------2--------------2----|
E|-0---------0----3------------------------|-----------0----3---------3------|-0---------0----3------------------------|

E|--------------------------------|-------------------------------------|-------------------------------------|
B|--------------------------------|-------------------------------------|-----------------1-------------------|
G|-%-----2-----2---2---0----2-----|--------------------------%----%-----|------------0---------0---------0----|
D|-%------------------------------|------2--------------2----%----%-----|-------2-------------------2---------|
A|--------------------------------|------2--------------2---------------|-3-----------------------------------|
E|--------------------------------|-0---------0----3--------------------|-------------------------------------|

E|-------------------------------------|-----------------------------------------|---------------------------------|
B|-----------------3-------------------|-----------------------------------------|---------------------------------|
G|------------0---------0--------------|--------------------------%----%---------|-%-------------------------------|
D|-------4------------------------0----|------2--------------2----%----%----2----|-%----2--------------0-----------|
A|-5-------------------------4---------|------2--------------2--------------2----|------2--------------------------|
E|-------------------------------------|-0---------0----3------------------------|-----------0----3---------3------|

E|-----------------------------------------|---------------------------------|-----------------------------------------|
B|-----------------------------------------|---------------------------------|-----------------------------------------|
G|--------------------------%----%---------|-%-------------------------------|--------------------------%----%---------|
D|------2--------------2----%----%----2----|-%----2--------------0-----------|------2--------------2----%----%----2----|
A|------2--------------2--------------2----|------2--------------------------|------2--------------2--------------2----|
E|-0---------0----3------------------------|-----------0----3---------3------|-0---------0----3------------------------|

E|---------------------------------|-----------------------------------------|---------------------------------|
B|---------------------------------|-----------------------------------------|---------------------------------|
G|-%-------------------------------|--------------------------%----%---------|-%-------------------------------|
D|-%----2--------------0-----------|------2--------------2----%----%----2----|-%----2--------------0-----------|
A|------2--------------------------|------2--------------2--------------2----|------2--------------------------|
E|-----------0----3---------3------|-0---------0----3------------------------|-----------0----3---------3------|

E|-------------------------------------|-------------------------------------|-------------------------------------|
B|-------------------------------------|-----------------1-------------------|-----------------3-------------------|
G|--------------------------%----%-----|------------0---------0---------0----|------------0---------0--------------|
D|------2--------------2----%----%-----|-------2-------------------2---------|-------4------------------------0----|
A|------2--------------2---------------|-3-----------------------------------|-5-------------------------4---------|
E|-0---------0----3--------------------|-------------------------------------|-------------------------------------|

E|-----------------------------------------|---------------------------------|-----------------------------------------|
B|-----------------------------------------|---------------------------------|-----------------------------------------|
G|--------------------------%----%---------|-%-------------------------------|--------------------------%----%---------|
D|------2--------------2----%----%----2----|-%----2--------------0-----------|------2--------------2----%----%----2----|
A|------2--------------2--------------2----|------2--------------------------|------2--------------2--------------2----|
E|-0---------0----3------------------------|-----------0----3---------3------|-0---------0----3------------------------|

E|---------------------------------|-----------------------------------------|---------------------------------|
B|---------------------------------|-----------------------------------------|---------------------------------|
G|-%-------------------------------|--------------------------%----%---------|-%-------------------------------|
D|-%----2--------------0-----------|------2--------------2----%----%----2----|-%----2--------------0-----------|
A|------2--------------------------|------2--------------2--------------2----|------2--------------------------|
E|-----------0----3---------3------|-0---------0----3------------------------|-----------0----3---------3------|

E|-----------------------------------------|---------------------------------|-----------------------------------------|
B|-----------------------------------------|---------------------------------|-----------------------------------------|
G|--------------------------%----%---------|-%-------------------------------|--------------------------%----%---------|
D|------2--------------2----%----%----2----|-%----2--------------0-----------|------2--------------2----%----%----2----|
A|------2--------------2--------------2----|------2--------------------------|------2--------------2--------------2----|
E|-0---------0----3------------------------|-----------0----3---------3------|-0---------0----3------------------------|

E|---------------------------------|-----------------------------------------|---------------------------------|
B|---------------------------------|-----------------------------------------|---------------------------------|
G|-%-------------------------------|--------------------------%----%---------|-%-------------------------------|
D|-%----2--------------0-----------|------2--------------2----%----%----2----|-%----2--------------0-----------|
A|------2--------------------------|------2--------------2--------------2----|------2--------------------------|
E|-----------0----3---------3------|-0---------0----3------------------------|-----------0----3---------3------|

E|-----------------------------------------|---------------------------------|-----------------------------------------|
B|-----------------------------------------|---------------------------------|-----------------------------------------|
G|--------------------------%----%---------|-%-------------------------------|--------------------------%----%---------|
D|------2--------------2----%----%----2----|-%----2--------------0-----------|------2--------------2----%----%----2----|
A|------2--------------2--------------2----|------2--------------------------|------2--------------2--------------2----|
E|-0---------0----3------------------------|-----------0----3---------3------|-0---------0----3------------------------|

E|---------------------------------|-----------------------------------------|---------------------------------|
B|---------------------------------|-----------------------------------------|---------------------------------|
G|-%-------------------------------|--------------------------%----%---------|-%-------------------------------|
D|-%----2--------------0-----------|------2--------------2----%----%----2----|-%----2--------------0-----------|
A|------2--------------------------|------2--------------2--------------2----|------2--------------------------|
E|-----------0----3---------3------|-0---------0----3------------------------|-----------0----3---------3------|

E|-----------------------------------------|---------------------------------|-----------------------------------------|
B|-----------------------------------------|---------------------------------|-----------------------------------------|
G|--------------------------%----%---------|-%-------------------------------|--------------------------%----%---------|
D|------2--------------2----%----%----2----|-%----2--------------0-----------|------2--------------2----%----%----2----|
A|------2--------------2--------------2----|------2--------------------------|------2--------------2--------------2----|
E|-0---------0----3------------------------|-----------0----3---------3------|-0---------0----3------------------------|

E|---------------------------------|-------------------------------------|-----------------------------------------|
B|---------------------------------|-------------------------------------|-----------------------------------------|
G|-%-------------------------------|--------------------------%----%-----|--------------------------%----%---------|
D|-%----2--------------0-----------|------2--------------2----%----%-----|------2--------------2----%----%----2----|
A|------2--------------------------|------2--------------2---------------|------2--------------2--------------2----|
E|-----------0----3---------3------|-0---------0----3--------------------|-0---------0----3------------------------|

E|---------------------------------|-----------------------------------------|---------------------------------|
B|---------------------------------|-----------------------------------------|---------------------------------|
G|-%-------------------------------|--------------------------%----%---------|-%-------------------------------|
D|-%----2--------------0-----------|------2--------------2----%----%----2----|-%----2--------------0-----------|
A|------2--------------------------|------2--------------2--------------2----|------2--------------------------|
E|-----------0----3---------3------|-0---------0----3------------------------|-----------0----3---------3------|

E|-----------------------------------------|---------------------------------|-----------------------------------------|
B|-----------------------------------------|---------------------------------|-----------------------------------------|
G|--------------------------%----%---------|-%-------------------------------|--------------------------%----%---------|
D|------2--------------2----%----%----2----|-%----2--------------0-----------|------2--------------2----%----%----2----|
A|------2--------------2--------------2----|------2--------------------------|------2--------------2--------------2----|
E|-0---------0----3------------------------|-----------0----3---------3------|-0---------0----3------------------------|

E|---------------------------------|-----------------------------------------|---------------------------------|
B|---------------------------------|-----------------------------------------|---------------------------------|
G|-%-------------------------------|--------------------------%----%---------|-%-------------------------------|
D|-%----2--------------0-----------|------2--------------2----%----%----2----|-%----2--------------0-----------|
A|------2--------------------------|------2--------------2--------------2----|------2--------------------------|
E|-----------0----3---------3------|-0---------0----3------------------------|-----------0----3---------3------|

E|-----------------------------------------|-----------------------------------|-----------------------------------------|
B|-----------------------------------------|-----------------------------------|-----------------------------------------|
G|--------------------------%----%---------|-%---------------------------------|--------------------------%----%---------|
D|------2--------------2----%----%----2----|-%------2--------------0-----------|------2--------------2----%----%----2----|
A|------2--------------2--------------2----|--------2--------------------------|------2--------------2--------------2----|
E|-0---------0----3------------------------|-------------0----3---------3------|-0---------0----3------------------------|

E|---------------------------------|-----------------------------------------|----------------2----2------|
B|---------------------------------|-----------------------------------------|-----------3----------------|
G|-%-------------------------------|--------------------------%----%---------|------2---------------------|
D|-%----2--------------0-----------|------2--------------2----%----%----2----|-0--------------------------|
A|------2--------------------------|------2--------------2--------------2----|----------------------------|
E|-----------0----3---------3------|-0---------0----3------------------------|----------------------------|

E|-----------------------------------------|-----------------------------------------------|
B|-----------------------------------------|-----------------------------------------------|
G|--------------------------%----%---------|-----------------------------------------------|
D|------2--------------2----%----%----2----|-2--------------0----X---X---X---X---X---------|
A|------2--------------2--------------2----|-2-------------------X---X---X---X---X---------|
E|-0---------0----3------------------------|------0----3---------X---X---X---X---X----0----|

E|-----------------------------------------|---------------------------------|-----------------------------------------|
B|-----------------------------------------|---------------------------------|-----------------------------------------|
G|--------------------------%----%---------|-%-------------------------------|--------------------------%----%---------|
D|------2--------------2----%----%----2----|-%----2--------------0-----------|------2--------------2----%----%----2----|
A|------2--------------2--------------2----|------2--------------------------|------2--------------2--------------2----|
E|-0---------0----3------------------------|-----------0----3---------3------|-0---------0----3------------------------|

E|---------------------------------|-----------------------------------------|---------------------------------|
B|---------------------------------|-----------------------------------------|---------------------------------|
G|-%-------------------------------|--------------------------%----%---------|-%-------------------------------|
D|-%----2--------------0-----------|------2--------------2----%----%----2----|-%----2--------------0-----------|
A|------2--------------------------|------2--------------2--------------2----|------2--------------------------|
E|-----------0----3---------3------|-0---------0----3------------------------|-----------0----3---------3------|

E|-----------------------------------------|---------------------------------|-----------------------------------------|
B|-----------------------------------------|---------------------------------|-----------------------------------------|
G|--------------------------%----%---------|-%-------------------------------|--------------------------%----%---------|
D|------2--------------2----%----%----2----|-%----2--------------0-----------|------2--------------2----%----%----2----|
A|------2--------------2--------------2----|------2--------------------------|------2--------------2--------------2----|
E|-0---------0----3------------------------|-----------0----3---------3------|-0---------0----3------------------------|

E|---------------------------------|-----------------------------------------|---------------------------------|
B|---------------------------------|-----------------------------------------|---------------------------------|
G|-%-------------------------------|--------------------------%----%---------|-%-------------------------------|
D|-%----2--------------0-----------|------2--------------2----%----%----2----|-%----2--------------0-----------|
A|------2--------------------------|------2--------------2--------------2----|------2--------------------------|
E|-----------0----3---------3------|-0---------0----3------------------------|-----------0----3---------3------|

E|-----------------------------------------|---------------------------------|-----------------------------------------|
B|-----------------------------------------|---------------------------------|-----------------------------------------|
G|--------------------------%----%---------|-%-------------------------------|--------------------------%----%---------|
D|------2--------------2----%----%----2----|-%----2--------------0-----------|------2--------------2----%----%----2----|
A|------2--------------2--------------2----|------2--------------------------|------2--------------2--------------2----|
E|-0---------0----3------------------------|-----------0----3---------3------|-0---------0----3------------------------|

E|------------------------------|-----------------------------------------|---------------------------------|
B|-12-----14----14----14--------|-----------------------------------------|---------------------------------|
G|-------------------------12---|--------------------------%----%---------|-%-------------------------------|
D|------------------------------|------2--------------2----%----%----2----|-%----2--------------0-----------|
A|------------------------------|------2--------------2--------------2----|------2--------------------------|
E|------------------------------|-0---------0----3------------------------|-----------0----3---------3------|

E|-----------------------------------------|---------------------------------|-----------------------------------------|
B|-----------------------------------------|---------------------------------|-----------------------------------------|
G|--------------------------%----%---------|-%-------------------------------|--------------------------%----%---------|
D|------2--------------2----%----%----2----|-%----2--------------0-----------|------2--------------2----%----%----2----|
A|------2--------------2--------------2----|------2--------------------------|------2--------------2--------------2----|
E|-0---------0----3------------------------|-----------0----3---------3------|-0---------0----3------------------------|
Pink Floyd - Have a Cigar (2)
Pink Floyd - Have a Cigar (2).gp3