Pink Floyd - Hey You

Pink Floyd



Title: Hey You
Album: 
Artist: 
Author: Pink Floyd

Track 1: Guitar 1
E|-----------------------------------------------------------------|-------------5-----------5-------------------5-----------5-------|
B|-7-----------8-----------8-------7-----------8-----------8-------|-5---------------6---------------5---------------6---------------|
G|---------9-------9-----------9-----------9-------9-----------9---|---------7-----------7-------7-----------7-----------7-------7---|
D|-----9---------------9---------------9---------------9-----------|-----7-------------------------------7---------------------------|
A|-----------------------------------------------------------------|-----------------------------------------------------------------|
E|-----------------------------------------------------------------|-----------------------------------------------------------------|

E|-------------5-----------5-------------------5-----------5-------|-----------------------------------------------------------------|
B|-5---------------6---------------5---------------6-----------6---|-7-----------8-----------8-------7-----------8-----------8-------|
G|---------7-----------7-------7-----------7-----------7-----------|---------9-------9-----------9-----------9-------9-----------9---|
D|-----7-------------------------------7---------------------------|-----9---------------9---------------9---------------9-----------|
A|-----------------------------------------------------------------|-----------------------------------------------------------------|
E|-----------------------------------------------------------------|-----------------------------------------------------------------|

E|---------------------------------|-------------7---------------7---------------7-----------7-------|
B|-7-----------8-----------8-------|-7-------7-----------7-----------7---------------7---------------|
G|---------9-------9-----------7---|-----------------7-------7---------------7-----------7-------7---|
D|-----9---------------9-----------|-----9-------------------------------9---------------------------|
A|---------------------------------|-----------------------------------------------------------------|
E|---------------------------------|-----------------------------------------------------------------|

E|-----------------------------------------------------------------|---------------------------------|
B|-7-----------8-----------8-------7-----------8-----------8-------|-7-----------8-----------8-------|
G|---------9-------9-----------9-----------9-------9-----------9---|---------9-------9-----------7---|
D|-----9---------------9---------------9---------------9-----------|-----9---------------9-----------|
A|-----------------------------------------------------------------|---------------------------------|
E|-----------------------------------------------------------------|---------------------------------|

E|-------------7---------------7---------------7-----------7-------|-------------5-----------5-------------------5-----------5-------|
B|-7-------7-----------7-----------7---------------7---------------|-5---------------7---------------5---------------7---------------|
G|-----------------7-------7---------------7-----------7-------7---|---------7-----------7-------7-----------7-----------7-------7---|
D|-----9-------------------------------9---------------------------|-----7-------------------------------7---------------------------|
A|-----------------------------------------------------------------|-----------------------------------------------------------------|
E|-----------------------------------------------------------------|-----------------------------------------------------------------|

E|---------------------------------|-----------------------------------------------------------------|
B|-8---------------7-----------8---|-------------8-----------8-------------------8-----------8-------|
G|---------7---------------7-------|-9-------9-------9-----------9---9-------9-------9-----------7---|
D|-----9---------------7-----------|-----10--------------10--------------10--------------10----------|
A|-------------10------------------|-----------------------------------------------------------------|
E|---------------------------------|-----------------------------------------------------------------|

E|-------------7-----------7-------------------5-----------5-------|-----------------------------------------------------------------|
B|-7-------7-------7-----------7---5-------5-------5---------------|-------------8-----------8-------7-----------8-----------8-------|
G|---------------------7-------------------------------5-------7---|-9-------9-------9-----------9-----------9-------9-----------9---|
D|-----9-------------------------------7---------------------------|-----9---------------9---------------9---------------9-----------|
A|-----------------------------------------------------------------|-----------------------------------------------------------------|
E|-----------------------------------------------------------------|-----------------------------------------------------------------|

E|-------------5-----------5-------------------5---------|-----------------------------------------------------------------|
B|-5---------------6---------------5---------------6-----|-7-----------8-----------8-------7-----------8-----------8-------|
G|---------7-----------7-------7-----------7-------------|---------9-------9-----------9-----------9-------9-----------9---|
D|-----7-------------------------------7-----------------|-----9---------------9---------------9---------------9-----------|
A|-------------------------------------------------------|-----------------------------------------------------------------|
E|-------------------------------------------------------|-----------------------------------------------------------------|

E|---------------------------------|-------------7---------------7---------------7-----------7-------|
B|-7-----------8-----------8-------|-7-------7-----------7-----------7---------------7---------------|
G|---------9-------9-----------7---|-----------------7-------7---------------7-----------7-------7---|
D|-----9---------------9-----------|-----9-------------------------------9---------------------------|
A|---------------------------------|-----------------------------------------------------------------|
E|---------------------------------|-----------------------------------------------------------------|

E|-----------------------------------------------------------------|---------------------------------|
B|-7-----------8-----------8-------7-----------8-----------8-------|-7-----------8-----------8-------|
G|---------9-------9-----------9-----------9-------9-----------9---|---------9-------9-----------7---|
D|-----9---------------9---------------9---------------9-----------|-----9---------------9-----------|
A|-----------------------------------------------------------------|---------------------------------|
E|-----------------------------------------------------------------|---------------------------------|

E|-------------7---------------7---------------7-----------7-------|-------------5-----------5-------------------5-----------5-------|
B|-7-------7-----------7-----------7---------------7---------------|-5---------------7---------------5---------------7---------------|
G|-----------------7-------7---------------7-----------7-------7---|---------7-----------7-------7-----------7-----------7-------7---|
D|-----9-------------------------------9---------------------------|-----7-------------------------------7---------------------------|
A|-----------------------------------------------------------------|-----------------------------------------------------------------|
E|-----------------------------------------------------------------|-----------------------------------------------------------------|

E|---------------------------------|-----------------------------------------------------------------|
B|-8---------------7-----------8---|-------------8-----------8-------------------8-----------8-------|
G|---------7---------------7-------|-9-------9-------9-----------9---9-------9-------9-----------7---|
D|-----9---------------7-----------|-----10--------------10--------------10--------------10----------|
A|-------------10------------------|-----------------------------------------------------------------|
E|---------------------------------|-----------------------------------------------------------------|

E|-7------5-----5-----0---|-0-------|---------|---------|---------|---------|---------|
B|-7------5-----5-----0---|-0-------|---------|---------|---------|---------|---------|
G|-7------5-----5-----0---|-0-------|-%-------|-%-------|-%-------|-%-------|-%-------|
D|-9------7-----7-----2---|-2-------|-%-------|-%-------|-%-------|-%-------|-%-------|
A|-9------7-----7-----2---|-2-------|---------|---------|---------|---------|---------|
E|-7------5-----5-----0---|-0-------|---------|---------|---------|---------|---------|

E|---------|---------|---------|---------|---------|---------|---------|---------|-0-----0---2-----2---3----2----|
B|---------|---------|---------|---------|---------|---------|---------|---------|-1-----1---3-----3---0----3----|
G|-%-------|-%-------|-%-------|-%-------|-%-------|-%-------|-%-------|-%-------|-0-----0---2-----2---0----2----|
D|-%-------|-%-------|-%-------|-%-------|-%-------|-%-------|-%-------|-%-------|-2-----2---0-----0---2----0----|
A|---------|---------|---------|---------|---------|---------|---------|---------|-3-----3-------------2---------|
E|---------|---------|---------|---------|---------|---------|---------|---------|---------------------3---------|

E|-0-----0----0---0---0-----0----0---0---|-0-----0---2-----2---3----2----|-0-----0----0---0---0-----0----0---0---|
B|-1-----1----1---1---1-----1----1---1---|-1-----1---3-----3---0----3----|-1-----1----1---1---1-----1----1---1---|
G|-0-----0----0---0---0-----0----0---0---|-0-----0---2-----2---0----2----|-0-----0----0---0---0-----0----0---0---|
D|-2-----2----2---2---2-----2----2---2---|-2-----2---0-----0---2----0----|-2-----2----2---2---2-----2----2---2---|
A|-3-----3----3---3---3-----3----3---3---|-3-----3-------------2---------|-3-----3----3---3---3-----3----3---3---|
E|---------------------------------------|---------------------3---------|---------------------------------------|

E|-0-----0---2-----2---3----2----|-0-----0----0---0---0-----0----0---0---|-0----0---0---2----2---2---|
B|-1-----1---3-----3---0----3----|-1-----1----1---1---1-----1----1---1---|-1----1---1---3----3---3---|
G|-0-----0---2-----2---0----2----|-0-----0----0---0---0-----0----0---0---|-0----0---0---2----2---2---|
D|-2-----2---0-----0---2----0----|-2-----2----2---2---2-----2----2---2---|-2----2---2---0----0---0---|
A|-3-----3-------------2---------|-3-----3----3---3---3-----3----3---3---|-3----3---3----------------|
E|---------------------3---------|---------------------------------------|---------------------------|

E|-----------------------------------------------------------------|-------------5-----------5-------------------5-----------5-------|
B|-7-----------8-----------8-------7-----------8-----------8-------|-5---------------6---------------5---------------6---------------|
G|---------9-------9-----------9-----------9-------9-----------9---|---------7-----------7-------7-----------7-----------7-------7---|
D|-----9---------------9---------------9---------------9-----------|-----7-------------------------------7---------------------------|
A|-----------------------------------------------------------------|-----------------------------------------------------------------|
E|-----------------------------------------------------------------|-----------------------------------------------------------------|

E|-----------------------------------------------------------------|-------------5-----------5-------------------5-----------5-------|
B|-7-----------8-----------8-------7-----------8-----------8-------|-5---------------6---------------5---------------6---------------|
G|---------9-------9-----------9-----------9-------9-----------9---|---------7-----------7-------7-----------7-----------7-------7---|
D|-----9---------------9---------------9---------------9-----------|-----7-------------------------------7---------------------------|
A|-----------------------------------------------------------------|-----------------------------------------------------------------|
E|-----------------------------------------------------------------|-----------------------------------------------------------------|

E|-----------------------------------------------------------------|-------------5-----------5-------------------5-----------5-------|
B|-7-----------8-----------8-------7-----------8-----------8-------|-5---------------6---------------5---------------6---------------|
G|---------9-------9-----------9-----------9-------9-----------9---|---------7-----------7-------7-----------7-----------7-------7---|
D|-----9---------------9---------------9---------------9-----------|-----7-------------------------------7---------------------------|
A|-----------------------------------------------------------------|-----------------------------------------------------------------|
E|-----------------------------------------------------------------|-----------------------------------------------------------------|

E|-----------------------------------------------------------------|-------------5-----------5-------------------5-----------5-------|
B|-7-----------8-----------8-------7-----------8-----------8-------|-5---------------6---------------5---------------6---------------|
G|---------9-------9-----------9-----------9-------9-----------9---|---------7-----------7-------7-----------7-----------7-------7---|
D|-----9---------------9---------------9---------------9-----------|-----7-------------------------------7---------------------------|
A|-----------------------------------------------------------------|-----------------------------------------------------------------|
E|-----------------------------------------------------------------|-----------------------------------------------------------------|

E|-----------------------------------------------------------------|---------------------------------|
B|-7-----------8-----------8-------7-----------8-----------8-------|-7-----------8-----------8-------|
G|---------9-------9-----------9-----------9-------9-----------9---|---------9-------9-----------7---|
D|-----9---------------9---------------9---------------9-----------|-----9---------------9-----------|
A|-----------------------------------------------------------------|---------------------------------|
E|-----------------------------------------------------------------|---------------------------------|

E|-------------7---------------7---------------7-----------7-------|-----------------------------------------------------------------|
B|-7-------7-----------7-----------7---------------7---------------|-7-----------8-----------8-------7-----------8-----------8-------|
G|-----------------7-------7---------------7-----------7-------7---|---------9-------9-----------9-----------9-------9-----------9---|
D|-----9-------------------------------9---------------------------|-----9---------------9---------------9---------------9-----------|
A|-----------------------------------------------------------------|-----------------------------------------------------------------|
E|-----------------------------------------------------------------|-----------------------------------------------------------------|

E|---------------------------------|-------------7---------------7---------------7-----------7-------|
B|-7-----------8-----------8-------|-7-------7-----------7-----------7---------------7---------------|
G|---------9-------9-----------7---|-----------------7-------7---------------7-----------7-------7---|
D|-----9---------------9-----------|-----9-------------------------------9---------------------------|
A|---------------------------------|-----------------------------------------------------------------|
E|---------------------------------|-----------------------------------------------------------------|

E|-------------5-----------5-------------------5-----------5-------|---------------------------------|
B|-5---------------7---------------5---------------7---------------|-8---------------7-----------8---|
G|---------7-----------7-------7-----------7-----------7-------7---|---------7---------------7-------|
D|-----7-------------------------------7---------------------------|-----9---------------7-----------|
A|-----------------------------------------------------------------|-------------10------------------|
E|-----------------------------------------------------------------|---------------------------------|

E|-----------------------------------------------------------------|-7------5-----5-----0---|
B|-------------8-----------8-------------------8-----------8-------|-7------5-----5-----0---|
G|-9-------9-------9-----------9---9-------9-------9-----------7---|-9------5-----5-----0---|
D|-----10--------------10--------------10--------------10----------|-9------7-----7-----2---|
A|-----------------------------------------------------------------|-7------7-----7-----2---|
E|-----------------------------------------------------------------|-7------5-----5-----0---|

E|-0-------|---------|
B|-0-------|---------|
G|-0-------|-%-------|
D|-2-------|-%-------|
A|-2-------|---------|
E|-0-------|---------|
Pink Floyd - Hey You
Pink Floyd - Hey You.gp3