Pink Floyd - Hey You (3)

Pink Floyd



Title: Hey you
Album: The Wall
Artist: Pink Floyd
Author: 

Track 1: Guitar 1 / Gilmour tuning
E|---------------------0--------------0----|---------------------0--------------0----|
B|--------------------------0--------------|--------------------------0--------------|
G|----------------0--------------0---------|----------------0--------------0---------|
D|-----------2-----------------------------|-----------2-----------------------------|
A|------2----------------------------------|------2----------------------------------|
E|-2---------------------------------------|-2---------------------------------------|

E|---------------------1-------------------|---------------------1-------------------|
B|--------------------------3--------------|--------------------------3--------------|
G|----------------2--------------2---------|----------------2--------------2---------|
D|-----------0------------------------0----|-----------0------------------------0----|
A|------0----------------------------------|------0----------------------------------|
E|-0---------------------------------------|-0---------------------------------------|

E|---------------------0--------------0----|---------------------0--------------0----|
B|--------------------------0--------------|--------------------------0--------------|
G|----------------0--------------0---------|----------------0--------------0---------|
D|-----------2-----------------------------|-----------2-----------------------------|
A|------2----------------------------------|------2----------------------------------|
E|-2---------------------------------------|-2---------------------------------------|

E|---------------------1-------------------|---------------------1-------------------|
B|--------------------------3--------------|--------------------------3--------------|
G|----------------2--------------2---------|----------------2--------------2---------|
D|-----------0------------------------0----|-----------0------------------------0----|
A|------0----------------------------------|------0----------------------------------|
E|-0---------------------------------------|-0---------------------------------------|

E|---------------------0--------------0----|---------------------0--------------0----|
B|--------------------------0--------------|--------------------------0--------------|
G|----------------0--------------0---------|----------------0--------------0---------|
D|-----------2-----------------------------|-----------2-----------------------------|
A|------2----------------------------------|------2----------------------------------|
E|-2---------------------------------------|-2---------------------------------------|

E|---------------------1-------------------|---------------------1-------------------|
B|--------------------------3--------------|--------------------------3--------------|
G|----------------2--------------2---------|----------------2--------------2---------|
D|-----------0------------------------0----|-----------0------------------------0----|
A|------0----------------------------------|------0----------------------------------|
E|-0---------------------------------------|-0---------------------------------------|

E|---------------------0--------------0----|---------------------0--------------0----|
B|--------------------------0--------------|--------------------------0--------------|
G|----------------0--------------0---------|----------------0--------------0---------|
D|-----------2-----------------------------|-----------2-----------------------------|
A|------2----------------------------------|------2----------------------------------|
E|-2---------------------------------------|-2---------------------------------------|

E|---------------------1-------------------|---------------------1-------------------|
B|--------------------------3--------------|--------------------------3--------------|
G|----------------2--------------2---------|----------------2--------------2---------|
D|-----------0------------------------0----|-----------0------------------------0----|
A|------0----------------------------------|------0----------------------------------|
E|-0---------------------------------------|-0---------------------------------------|

E|---------------------0--------------0----|---------------------0--------------0----|
B|--------------------------0--------------|--------------------------0--------------|
G|----------------0--------------0---------|----------------0--------------0---------|
D|-----------2-----------------------------|-----------2-----------------------------|
A|------2----------------------------------|------2----------------------------------|
E|-2---------------------------------------|-2---------------------------------------|

E|---------------------0--------------0----|-----------------------------------------|
B|--------------------------0--------------|-----------------------------------------|
G|----------------0--------------0---------|----------------4-------------------4----|
D|-----------2-----------------------------|-----------4---------0---------0---------|
A|------2----------------------------------|------2----------------------------------|
E|-2---------------------------------------|-2------------------------2--------------|

E|-----------------------------------------|---------------------0--------------0----|
B|-----------------------------------------|--------------------------0--------------|
G|----------------4-------------------4----|----------------0--------------0---------|
D|-----------4---------0---------0---------|-----------2-----------------------------|
A|------2----------------------------------|------2----------------------------------|
E|-2------------------------2--------------|-2---------------------------------------|

E|---------------------0--------------0----|---------------------0--------------0----|
B|--------------------------0--------------|--------------------------0--------------|
G|----------------0--------------0---------|----------------0--------------0---------|
D|-----------2-----------------------------|-----------2-----------------------------|
A|------2----------------------------------|------2----------------------------------|
E|-2---------------------------------------|-2---------------------------------------|

E|-----------------------------------------|-----------------------------------------|
B|-----------------------------------------|-----------------------------------------|
G|----------------4-------------------4----|----------------4-------------------4----|
D|-----------4---------0---------0---------|-----------4---------0---------0---------|
A|------2----------------------------------|------2----------------------------------|
E|-2------------------------2--------------|-2------------------------2--------------|

E|---------------------2-------------------|---------------------2-------------------|
B|-----------------------------------------|-----------1-----------------------------|
G|----------------2--------------2---------|----------------2--------------2---------|
D|-----------0--------------0---------0----|--------------------------0---------0----|
A|------0----------------------------------|------0----------------------------------|
E|-0---------------------------------------|-0---------------------------------------|

E|-3---------------2-------------------|-0---------0---------0--------------0----|-0---------0---------0-------------------|
B|-------------------------------------|------1-------------------1--------------|------1-------------------1--------------|
G|-4----------0-------------------0----|----------------0--------------0---------|----------------0--------------0---------|
D|-0-----0-------------------0---------|-----------------------------------------|------------------------------------0----|
A|----------------------0--------------|-----------------------------------------|-----------------------------------------|
E|-------------------------------------|-----------------------------------------|-----------------------------------------|

E|-----------------------------------------|---------------------0-------------------|
B|-----------------------------------------|--------------------------1--------------|
G|----------------4-------------------4----|----------------2--------------2---------|
D|-----------4---------0---------0---------|-----------2------------------------0----|
A|------2----------------------------------|------0----------------------------------|
E|-2------------------------2--------------|-0---------------------------------------|

E|---------------------0--------------0----|---------------------0--------------0----|
B|--------------------------0--------------|--------------------------0--------------|
G|----------------0--------------0---------|----------------0--------------0---------|
D|-----------2-----------------------------|-----------2-----------------------------|
A|------2----------------------------------|------2----------------------------------|
E|-2---------------------------------------|-2---------------------------------------|

E|---------------------1-------------------|---------------------1------|---------------------0--------------0----|
B|--------------------------3--------------|----------------------------|--------------------------0--------------|
G|----------------2--------------2---------|----------------2-----------|----------------0--------------0---------|
D|-----------0------------------------0----|-----------0----------------|-----------2-----------------------------|
A|------0----------------------------------|------0---------------------|------2----------------------------------|
E|-0---------------------------------------|-0--------------------------|-2---------------------------------------|

E|---------------------0--------------0----|---------------------0--------------0----|
B|--------------------------0--------------|--------------------------0--------------|
G|----------------0--------------0---------|----------------0--------------0---------|
D|-----------2-----------------------------|-----------2-----------------------------|
A|------2----------------------------------|------2----------------------------------|
E|-2---------------------------------------|-2---------------------------------------|

E|-----------------------------------------|-----------------------------------------|
B|-----------------------------------------|-----------------------------------------|
G|----------------4-------------------4----|----------------4-------------------4----|
D|-----------4---------0---------0---------|-----------4---------0---------0---------|
A|------2----------------------------------|------2----------------------------------|
E|-2------------------------2--------------|-2------------------------2--------------|

E|---------------------0--------------0----|---------------------0--------------0----|
B|--------------------------0--------------|--------------------------0--------------|
G|----------------0--------------0---------|----------------0--------------0---------|
D|-----------2-----------------------------|-----------2-----------------------------|
A|------2----------------------------------|------2----------------------------------|
E|-2---------------------------------------|-2---------------------------------------|

E|---------------------0--------------0----|-----------------------------------------|
B|--------------------------0--------------|-----------------------------------------|
G|----------------0--------------0---------|----------------4-------------------4----|
D|-----------2-----------------------------|-----------4---------0---------0---------|
A|------2----------------------------------|------2----------------------------------|
E|-2---------------------------------------|-2------------------------2--------------|

E|-----------------------------------------|---------------------1-------------------|
B|-----------------------------------------|--------------------------3--------------|
G|----------------4-------------------4----|----------------2--------------2---------|
D|-----------4---------0---------0---------|-----------0------------------------0----|
A|------2----------------------------------|------0----------------------------------|
E|-2------------------------2--------------|-0---------------------------------------|

E|---------------------2-------------------|-3---------------2-------------------|-0---------0---------0--------------0----|
B|-----------1-----------------------------|-------------------------------------|------1-------------------1--------------|
G|----------------2--------------2---------|-4----------0-------------------0----|----------------0--------------0---------|
D|--------------------------0---------0----|-0-----0-------------------0---------|-----------------------------------------|
A|------0----------------------------------|----------------------0--------------|-----------------------------------------|
E|-0---------------------------------------|-------------------------------------|-----------------------------------------|

E|-0---------0---------0-------------------|---------|---------|---------|---------|
B|------1-------------------1--------------|---------|---------|---------|---------|
G|----------------0--------------0---------|-%-------|-%-------|-%-------|-%-------|
D|------------------------------------0----|-%-------|-%-------|-%-------|-%-------|
A|-----------------------------------------|---------|---------|---------|---------|
E|-----------------------------------------|---------|---------|---------|---------|

E|---------|---------|---------|---------|---------|---------|---------|---------|---------|
B|---------|---------|---------|---------|---------|---------|---------|---------|---------|
G|-%-------|-%-------|-%-------|-%-------|-%-------|-%-------|-%-------|-%-------|-%-------|
D|-%-------|-%-------|-%-------|-%-------|-%-------|-%-------|-%-------|-%-------|-%-------|
A|---------|---------|---------|---------|---------|---------|---------|---------|---------|
E|---------|---------|---------|---------|---------|---------|---------|---------|---------|

E|---------|---------|---------|---------|---------|---------|---------|---------|---------|
B|---------|---------|---------|---------|---------|---------|---------|---------|---------|
G|-%-------|-%-------|-%-------|-%-------|-%-------|-%-------|-%-------|-%-------|-%-------|
D|-%-------|-%-------|-%-------|-%-------|-%-------|-%-------|-%-------|-%-------|-%-------|
A|---------|---------|---------|---------|---------|---------|---------|---------|---------|
E|---------|---------|---------|---------|---------|---------|---------|---------|---------|

E|---------|---------|---------|---------|---------|---------|---------|---------|-0------0----2------2----|
B|---------|---------|---------|---------|---------|---------|---------|---------|-1------1----3------3----|
G|-%-------|-%-------|-%-------|-%-------|-%-------|-%-------|-%-------|-%-------|-0------0----0------0----|
D|-%-------|-%-------|-%-------|-%-------|-%-------|-%-------|-%-------|-%-------|-0------0----0------0----|
A|---------|---------|---------|---------|---------|---------|---------|---------|-3------3----0------0----|
E|---------|---------|---------|---------|---------|---------|---------|---------|-0------0----------------|

E|-3-----2-----|-0-----0-----0-----0----0----|-0-----0-----0-----0----0----|-0-----0---------2-----2---------|
B|-0-----3-----|-1-----1-----1-----1----1----|-1-----1-----1-----1----1----|-1-----1---------3-----3---------|
G|-0-----0-----|-0-----0-----0-----0----0----|-0-----0-----0-----0----0----|-0-----0----0----0-----0----0----|
D|-0-----0-----|-0-----0-----0-----0----0----|-0-----0-----0-----0----0----|-0-----0---------0-----0---------|
A|-2-----0-----|-3-----3-----3-----3----3----|-3-----3-----3-----3----3----|-3-----3---------0-----0---------|
E|-3-----------|-0-----0-----0-----0----0----|-0-----0-----0-----0----0----|-0-----0-------------------------|

E|-3-----2-----|-0-----0-----0-----0----0----|-0-----0-----0-----0----0----|-0-----0---------2-----2---------|
B|-0-----3-----|-1-----1-----1-----1----1----|-1-----1-----1-----1----1----|-1-----1---------3-----3---------|
G|-0-----0-----|-0-----0-----0-----0----0----|-0-----0-----0-----0----0----|-0-----0----0----0-----0----0----|
D|-0-----0-----|-0-----0-----0-----0----0----|-0-----0-----0-----0----0----|-0-----0---------0-----0---------|
A|-0-----0-----|-3-----3-----3-----3----3----|-3-----3-----3-----3----3----|-3-----3---------0-----0---------|
E|-3-----------|-0-----0-----0-----0----0----|-0-----0-----0-----0----0----|-0-----0-------------------------|

E|-3-----2-----|-0-----0-----0-----0----0----|-0-----0-----0-----0----0----|-0-----0---------2-----2---------|
B|-0-----3-----|-1-----1-----1-----1----1----|-1-----1-----1-----1----1----|-1-----1---------3-----3---------|
G|-0-----0-----|-0-----0-----0-----0----0----|-0-----0-----0-----0----0----|-0-----0----0----0-----0----0----|
D|-0-----0-----|-0-----0-----0-----0----0----|-0-----0-----0-----0----0----|-0-----0---------0-----0---------|
A|-0-----0-----|-3-----3-----3-----3----3----|-3-----3-----3-----3----3----|-3-----3---------0-----0---------|
E|-3-----------|-0-----0-----0-----0----0----|-0-----0-----0-----0----0----|-0-----0-------------------------|

E|---------------------0--------------0----|---------------------0--------------0----|
B|--------------------------0--------------|--------------------------0--------------|
G|----------------0--------------0---------|----------------0--------------0---------|
D|-----------2-----------------------------|-----------2-----------------------------|
A|------2----------------------------------|------2----------------------------------|
E|-2---------------------------------------|-2---------------------------------------|

E|---------------------1-------------------|---------------------1-------------------|
B|--------------------------3--------------|--------------------------3--------------|
G|----------------2--------------2---------|----------------2--------------2---------|
D|-----------0------------------------0----|-----------0------------------------0----|
A|------0----------------------------------|------0----------------------------------|
E|-0---------------------------------------|-0---------------------------------------|

E|---------------------0--------------0----|---------------------0--------------0----|
B|--------------------------0--------------|--------------------------0--------------|
G|----------------0--------------0---------|----------------0--------------0---------|
D|-----------2-----------------------------|-----------2-----------------------------|
A|------2----------------------------------|------2----------------------------------|
E|-2---------------------------------------|-2---------------------------------------|

E|---------------------1-------------------|---------------------1-------------------|
B|--------------------------3--------------|--------------------------3--------------|
G|----------------2--------------2---------|----------------2--------------2---------|
D|-----------0------------------------0----|-----------0------------------------0----|
A|------0----------------------------------|------0----------------------------------|
E|-0---------------------------------------|-0---------------------------------------|

E|---------------------0--------------0----|---------------------0--------------0----|
B|--------------------------0--------------|--------------------------0--------------|
G|----------------0--------------0---------|----------------0--------------0---------|
D|-----------2-----------------------------|-----------2-----------------------------|
A|------2----------------------------------|------2----------------------------------|
E|-2---------------------------------------|-2---------------------------------------|

E|---------------------1-------------------|---------------------1-------------------|
B|--------------------------3--------------|--------------------------3--------------|
G|----------------2--------------2---------|----------------2--------------2---------|
D|-----------0------------------------0----|-----------0------------------------0----|
A|------0----------------------------------|------0----------------------------------|
E|-0---------------------------------------|-0---------------------------------------|

E|---------------------0--------------0----|---------------------0--------------0----|
B|--------------------------0--------------|--------------------------0--------------|
G|----------------0--------------0---------|----------------0--------------0---------|
D|-----------2-----------------------------|-----------2-----------------------------|
A|------2----------------------------------|------2----------------------------------|
E|-2---------------------------------------|-2---------------------------------------|

E|---------------------1-------------------|---------------------1-------------------|
B|--------------------------3--------------|--------------------------3--------------|
G|----------------2--------------2---------|----------------2--------------2---------|
D|-----------0------------------------0----|-----------0------------------------0----|
A|------0----------------------------------|------0----------------------------------|
E|-0---------------------------------------|-0---------------------------------------|

E|---------------------0--------------0----|---------------------0--------------0----|
B|--------------------------0--------------|--------------------------0--------------|
G|----------------0--------------0---------|----------------0--------------0---------|
D|-----------2-----------------------------|-----------2-----------------------------|
A|------2----------------------------------|------2----------------------------------|
E|-2---------------------------------------|-2---------------------------------------|

E|---------------------0--------------0----|-----------------------------------------|
B|--------------------------0--------------|-----------------------------------------|
G|----------------0--------------0---------|----------------4-------------------4----|
D|-----------2-----------------------------|-----------4---------0---------0---------|
A|------2----------------------------------|------2----------------------------------|
E|-2---------------------------------------|-2------------------------2--------------|

E|-----------------------------------------|---------------------0--------------0----|
B|-----------------------------------------|--------------------------0--------------|
G|----------------4-------------------4----|----------------0--------------0---------|
D|-----------4---------0---------0---------|-----------2-----------------------------|
A|------2----------------------------------|------2----------------------------------|
E|-2------------------------2--------------|-2---------------------------------------|

E|---------------------0--------------0----|---------------------0--------------0----|
B|--------------------------0--------------|--------------------------0--------------|
G|----------------0--------------0---------|----------------0--------------0---------|
D|-----------2-----------------------------|-----------2-----------------------------|
A|------2----------------------------------|------2----------------------------------|
E|-2---------------------------------------|-2---------------------------------------|

E|-----------------------------------------|-----------------------------------------|
B|-----------------------------------------|-----------------------------------------|
G|----------------4-------------------4----|----------------4-------------------4----|
D|-----------4---------0---------0---------|-----------4---------0---------0---------|
A|------2----------------------------------|------2----------------------------------|
E|-2------------------------2--------------|-2------------------------2--------------|

E|---------------------2-------------------|---------------------2-------------------|
B|-----------------------------------------|-----------1-----------------------------|
G|----------------2--------------2---------|----------------2--------------2---------|
D|-----------0--------------0---------0----|--------------------------0---------0----|
A|------0----------------------------------|------0----------------------------------|
E|-0---------------------------------------|-0---------------------------------------|

E|-3---------------2-------------------|-0---------0---------0--------------0----|-0---------0---------0-------------------|
B|-------------------------------------|------1-------------------1--------------|------1-------------------1--------------|
G|-4----------0-------------------0----|----------------0--------------0---------|----------------0--------------0---------|
D|-0-----0-------------------0---------|-----------------------------------------|------------------------------------0----|
A|----------------------0--------------|-----------------------------------------|-----------------------------------------|
E|-------------------------------------|-----------------------------------------|-----------------------------------------|

E|---------|---------|---------|
B|---------|---------|---------|
G|-%-------|-%-------|-%-------|
D|-%-------|-%-------|-%-------|
A|---------|---------|---------|
E|---------|---------|---------|
Pink Floyd - Hey You (3)
Pink Floyd - Hey You (3).gp4