Pink Floyd - In the Flesh

Pink Floyd



Title: In the Flesh
Album: The Wall
Artist: Pink Floyd
Author: Pink Floyd

Track 1: Guitar 1
E|-----------------|-------------------------------------|-------------------0-------|
B|-----------------|-------------------------------------|-8-----8----3------0-------|
G|-----------------|--------------------------------%----|-7-----7----2--------------|
D|-----------------|--------------------------------%----|---------------------------|
A|-----------------|--------0-----2----3------3----------|---------------------------|
E|-0-------2-------|-3-----------------------------------|---------------------------|

E|---------0---------------0----------------------------------------------------------|
B|-------------3---------------3------------------------------------------------------|
G|-2---0-----------2---0-----------2---2---0-------------------------------------%----|
D|---------------------------------------------2---0-----------------------------%----|
A|-----------------------------------------------------2---1---0-----------2----------|
E|-----------------------------------------------------------------3---0--------------|

E|-2-------4-------|-5-------4-------|-2-------4-------|-5-------7------7-----7----|
B|-3-------5-------|-6-------5-------|-3-------5-------|-6-------8------8-----8----|
G|-2-------4-------|-5-------4-------|-2-------4-------|-5-------7------7-----7----|
D|-0-------0-------|-0-------0-------|-0-------0-------|-0-------0------0-----0----|
A|-----------------|-----------------|-----------------|---------------------------|
E|-----------------|-----------------|-----------------|---------------------------|

E|---------------------------------|----------------------------------------|---------------------------------|
B|---------------------------------|----------------------------------------|---------------------------------|
G|-2-------------------------------|-------X---0----------------------------|---------------------------------|
D|-2-------------------------------|-------X---0---X------------------------|-2-------------------------------|
A|-0------2------2------0----------|-------X---0---X---4------4------2------|-0------2------2------0----------|
E|----------------------------2----|-2-------------X------------------------|----------------------------2----|

E|------------------------------------|---------------------------------|----------------------------------------|
B|------------------------------------|---------------------------------|----------------------------------------|
G|------------------------------------|-2-------------------------------|-------X--------------------------------|
D|------------------------------------|-2-------------------------------|-------X--------------------------------|
A|-------X---X---4------4------2------|-0------2------2------0-----1----|-2---------X---4------4------2-----3----|
E|-2-----X---X------------------------|---------------------------------|----------------------------------------|

E|----------------------------------------|---------------------------------------------|
B|----------------------------------------|---------------------------------------------|
G|-------X---%----------------------------|---------------------------------------------|
D|-------X---%----------------------------|------------------------------2--------------|
A|-4-------------5------5------4----------|-------------2---------5-----------2---------|
E|-----------------------------------12---|-0------0----0----4----0----------------0----|

E|---------|---------|--------------|--------------|--------------|--------------|--------------|
B|---------|---------|--------------|--------------|--------------|--------------|--------------|
G|-2-------|-2-------|-%------%-----|-%------%-----|-%------%-----|-%------%-----|-%------%-----|
D|-2-------|-2-------|-%------%-----|-%------%-----|-%------%-----|-%------%-----|-%------%-----|
A|-0-------|-0-------|--------------|--------------|--------------|--------------|--------------|
E|---------|---------|--------------|--------------|--------------|--------------|--------------|

E|--------------|--------------|--------------|--------------|--------------|--------------|
B|--------------|--------------|--------------|--------------|--------------|--------------|
G|-%------%-----|-%------%-----|-%------%-----|-%------%-----|-%------%-----|-%------%-----|
D|-%------%-----|-%------%-----|-%------%-----|-%------%-----|-%------%-----|-%------%-----|
A|--------------|--------------|--------------|--------------|--------------|--------------|
E|--------------|--------------|--------------|--------------|--------------|--------------|

E|--------------|--------------|--------------|--------------|--------------|--------------|
B|--------------|--------------|--------------|--------------|--------------|--------------|
G|-%------%-----|-%------%-----|-%------%-----|-%------%-----|-%------%-----|-%------%-----|
D|-%------%-----|-%------%-----|-%------%-----|-%------%-----|-%------%-----|-%------%-----|
A|--------------|--------------|--------------|--------------|--------------|--------------|
E|--------------|--------------|--------------|--------------|--------------|--------------|

E|--------------|--------------|--------------|--------------|--------------|--------------|
B|--------------|--------------|--------------|--------------|--------------|--------------|
G|-%------%-----|-%------%-----|-%------%-----|-%------%-----|-%------%-----|-%------%-----|
D|-%------%-----|-%------%-----|-%------%-----|-%------%-----|-%------%-----|-%------%-----|
A|--------------|--------------|--------------|--------------|--------------|--------------|
E|--------------|--------------|--------------|--------------|--------------|--------------|

E|--------------|--------------|--------------|--------------|--------------|--------------|
B|--------------|--------------|--------------|--------------|--------------|--------------|
G|-%------%-----|-%------%-----|-%------%-----|-%------%-----|-%------%-----|-%------%-----|
D|-%------%-----|-%------%-----|-%------%-----|-%------%-----|-%------%-----|-%------%-----|
A|--------------|--------------|--------------|--------------|--------------|--------------|
E|--------------|--------------|--------------|--------------|--------------|--------------|

E|--------------|--------------|--------------|--------------|--------------|--------------|
B|--------------|--------------|--------------|--------------|--------------|--------------|
G|-%------%-----|-%------%-----|-%------%-----|-%------%-----|-%------%-----|-%------%-----|
D|-%------%-----|-%------%-----|-%------%-----|-%------%-----|-%------%-----|-%------%-----|
A|--------------|--------------|--------------|--------------|--------------|--------------|
E|--------------|--------------|--------------|--------------|--------------|--------------|

E|--------------|--------------|--------------|--------------|--------------|--------------|
B|--------------|--------------|--------------|--------------|--------------|--------------|
G|-%------%-----|-%------%-----|-%------%-----|-%------%-----|-%------%-----|-%------%-----|
D|-%------%-----|-%------%-----|-%------%-----|-%------%-----|-%------%-----|-%------%-----|
A|--------------|--------------|--------------|--------------|--------------|--------------|
E|--------------|--------------|--------------|--------------|--------------|--------------|

E|--------------|--------------|--------------|--------------|--------------|----------------|
B|--------------|--------------|--------------|--------------|--------------|----------------|
G|-%------%-----|-%------%-----|-%------%-----|-%------%-----|-%------%-----|-%-------%------|
D|-%------%-----|-%------%-----|-%------%-----|-%------%-----|-%------%-----|-%-------%------|
A|--------------|--------------|--------------|--------------|--------------|----------------|
E|--------------|--------------|--------------|--------------|--------------|----------------|

E|----------------------------------------|---------------------------------|------------------------------------|
B|----------------------------------------|---------------------------------|------------------------------------|
G|-%-----X---0----------------------------|---------------------------------|------------------------------------|
D|-%-----X---0---X------------------------|-2-------------------------------|------------------------------------|
A|-------X---0---X---4------4------2------|-0------2------2------0----------|-------X---X---4------4------2------|
E|---------------X------------------------|----------------------------2----|-2-----X---X------------------------|

E|---------------------------------|----------------------------------------|----------------------------------------|
B|---------------------------------|----------------------------------------|----------------------------------------|
G|-2-------------------------------|-------X--------------------------------|-------X---%----------------------------|
D|-2-------------------------------|-------X--------------------------------|-------X---%----------------------------|
A|-0------2------2------0-----1----|-2---------X---4------4------2-----3----|-4-------------5------5------4----------|
E|---------------------------------|----------------------------------------|-----------------------------------12---|

E|---------------------------------------|------------------------------------------------------------------------------------------------------|
B|---------------------------------------|------------------------------------------------------------------------------------------------------|
G|---------------------------------------|-2---2---2---2---2---2---2---2--2--2--2--2---2---2---2---2---2---2---2---2---2---2---2--2--2--2--2----|
D|-2-------2----2----2----2----2----2----|-2---2---2---2---2---2---2---2--2--2--2--2---2---2---2---2---2---2---2---2---2---2---2--2--2--2--2----|
A|-2-------2----2----2----2----2----2----|-0---0---0---0---0---0---0---0--0--0--0--0---0---0---0---0---0---0---0---0---0---0---0--0--0--0--0----|
E|-0-------0----0----0----0----0----0----|------------------------------------------------------------------------------------------------------|

E|---------------------------|
B|---------------------------|
G|-2-----%------%-----%------|
D|-2-----%------%-----%------|
A|-0-------------------------|
E|---------------------------|
Pink Floyd - In the Flesh
Pink Floyd - In the Flesh.gp3