Pink Floyd - In The Flesh (3)

Pink Floyd



Title: In The Flesh
Album: The Wall
Artist: Pink Floyd
Author: Roger Waters

Track 1: David Gilmour (Guitar)
E|-----------------|---------------------------|-------------------0-------|---------0---------------0----------------------------------------------------------|
B|-----------------|---------------------------|-8-----8----3------0-------|-----0-------3-------0-------3------------------------------------------------------|
G|-----------------|---------------------------|-7-----7----2--------------|-2---------------2---------------2---2---0-------------------------------------%----|
D|-----------------|---------------------------|---------------------------|---------------------------------------------2---0-----------------------2-----%----|
A|-----------------|--------0-----2----3-------|---------------------------|-----------------------------------------------------2---1---0----------------------|
E|-0-------2-------|-3-------------------------|---------------------------|-----------------------------------------------------------------3---0--------------|

E|-2-------4-------|-5-------4-------|-2-------4-------|-5-------7-------|---------------------------------|
B|-3-------5-------|-6-------5-------|-3-------5-------|-6-------8-------|---------------------------------|
G|-2-------4-------|-5-------4-------|-2-------4-------|-5-------7-------|-2-------------------------------|
D|-----------------|-----------------|-----------------|-----------------|-2-------------------------------|
A|-----------------|-----------------|-----------------|-----------------|-0------2------2------0----------|
E|-----------------|-----------------|-----------------|-----------------|----------------------------2----|

E|---------------------------------------------|---------------------------------|---------------------------------------------|
B|---------------------------------------------|---------------------------------|---------------------------------------------|
G|---------------------------------------------|---------------------------------|---------------------------------------------|
D|-------X----X--------------------------------|-2-------------------------------|-------X----X--------------------------------|
A|-------X----X---4-----4----4---4------2------|-0------2------2------0----------|-------X----X---4-----4----4---4------2------|
E|-2-------------------------------------------|----------------------------2----|-2-------------------------------------------|

E|---------------------------------|----------------------------------------|---------------------------------|
B|---------------------------------|----------------------------------------|---------------------------------|
G|-2-------------------------------|----------------------------------------|---------------------------------|
D|-2-------------------------------|-------X---X----------------------------|---------------------------------|
A|-0------2------2------0-----1----|-2-----X---X---4------4------2-----3----|-4------5------5------4----------|
E|---------------------------------|----------------------------------------|----------------------------12---|

E|--------------------------|-------------------------------|-------------------------------|
B|--------------------------|----------------2--------------|----------------2--------------|
G|--------------------------|-----------2---------2---------|-----------2---------2---------|
D|--------------------------|------2-------------------2----|------2-------------------2----|
A|--------------------------|-0-----------------------------|-0-----------------------------|
E|-0------0----0----0-------|-------------------------------|-------------------------------|

E|----------------2--------------|----------------2--------------|-------------------------------|
B|-----------3---------3---------|-----------3---------3---------|----------------2--------------|
G|------2-------------------2----|------2-------------------2----|-----------2---------2---------|
D|-0-----------------------------|-0-----------------------------|------2-------------------2----|
A|-------------------------------|-------------------------------|-0-----------------------------|
E|-------------------------------|-------------------------------|-------------------------------|

E|-------------------------------|----------------2--------------|----------------2--------------|
B|----------------2--------------|-----------3---------3---------|-----------3---------3---------|
G|-----------2---------2---------|------2-------------------2----|------2-------------------2----|
D|------2-------------------2----|-0-----------------------------|-0-----------------------------|
A|-0-----------------------------|-------------------------------|-------------------------------|
E|-------------------------------|-------------------------------|-------------------------------|

E|-------------------------------|-------------------------------|-------------------------------|
B|----------------2--------------|----------------2--------------|----------------3--------------|
G|-----------2---------2---------|-----------2-------------------|-----------4---------4---------|
D|------2-------------------2----|------2------------------------|------4-------------------4----|
A|-0-----------------------------|-0-------------------0----1----|-2-----------------------------|
E|-------------------------------|-------------------------------|-------------------------------|

E|-------------------------------|-------------------------------|-------------------------------|
B|----------------3--------------|----------------5--------------|----------------5--------------|
G|-----------4---------4---------|-----------6---------6---------|-----------6---------6---------|
D|------4-------------------4----|------6-------------------6----|------6-------------------6----|
A|-2-----------------------------|-4-----------------------------|-4-----------------------------|
E|-------------------------------|-------------------------------|-------------------------------|

E|----------------0--------------|----------------0--------------|-------------------------------|
B|-----------0---------0---------|-----------0---------0---------|----------------2--------------|
G|------1-------------------1----|------1-------------------1----|-----------2---------2---------|
D|-------------------------------|-------------------------------|------2-------------------2----|
A|-------------------------------|-------------------------------|-0-----------------------------|
E|-0-----------------------------|-0-----------------------------|-------------------------------|

E|-------------------------------|----------------2--------------|----------------2--------------|
B|----------------2--------------|-----------3---------3---------|-----------3---------3---------|
G|-----------2---------2---------|------2-------------------2----|------2-------------------2----|
D|------2-------------------2----|-0-----------------------------|-0-----------------------------|
A|-0-----------------------------|-------------------------------|-------------------------------|
E|-------------------------------|-------------------------------|-------------------------------|

E|-------------------------------|-------------------------------|----------------2--------------|
B|----------------2--------------|----------------2--------------|-----------3---------3---------|
G|-----------2---------2---------|-----------2---------2---------|------2-------------------2----|
D|------2-------------------2----|------2-------------------2----|-0-----------------------------|
A|-0-----------------------------|-0-----------------------------|-------------------------------|
E|-------------------------------|-------------------------------|-------------------------------|

E|----------------2--------------|-------------------------------|-------------------------------|
B|-----------3---------3---------|----------------2--------------|----------------2--------------|
G|------2-------------------2----|-----------2---------2---------|-----------2-------------------|
D|-0-----------------------------|------2-------------------2----|------2------------------------|
A|-------------------------------|-0-----------------------------|-0-------------------0----1----|
E|-------------------------------|-------------------------------|-------------------------------|

E|-------------------------------|-------------------------------|-------------------------------|
B|----------------3--------------|----------------3--------------|----------------5--------------|
G|-----------4---------4---------|-----------4---------4---------|-----------6---------6---------|
D|------4-------------------4----|------4-------------------4----|------6-------------------6----|
A|-2-----------------------------|-2-----------------------------|-4-----------------------------|
E|-------------------------------|-------------------------------|-------------------------------|

E|-------------------------------|----------------0--------------|----------------0--------------|
B|----------------5--------------|-----------0---------0---------|-----------0---------0---------|
G|-----------6---------6---------|------1-------------------1----|------1-------------------1----|
D|------6-------------------6----|-------------------------------|-------------------------------|
A|-4-----------------------------|-------------------------------|-------------------------------|
E|-------------------------------|-0-----------------------------|-0-----------------------------|

E|-------------------------------|-------------------------------|----------------2--------------|
B|----------------2--------------|----------------2--------------|-----------3---------3---------|
G|-----------2---------2---------|-----------2---------2---------|------2-------------------2----|
D|------2-------------------2----|------2-------------------2----|-0-----------------------------|
A|-0-----------------------------|-0-----------------------------|-------------------------------|
E|-------------------------------|-------------------------------|-------------------------------|

E|----------------2--------------|-------------------------------|-------------------------------|
B|-----------3---------3---------|----------------2--------------|----------------2--------------|
G|------2-------------------2----|-----------2---------2---------|-----------2---------2---------|
D|-0-----------------------------|------2-------------------2----|------2-------------------2----|
A|-------------------------------|-0-----------------------------|-0-----------------------------|
E|-------------------------------|-------------------------------|-------------------------------|

E|----------------2--------------|----------------2--------------|-------------------------------|
B|-----------3---------3---------|-----------3---------3---------|----------------2--------------|
G|------2-------------------2----|------2-------------------2----|-----------2---------2---------|
D|-0-----------------------------|-0-----------------------------|------2-------------------2----|
A|-------------------------------|-------------------------------|-0-----------------------------|
E|-------------------------------|-------------------------------|-------------------------------|

E|-------------------------------|-------------------------------|-------------------------------|
B|----------------2--------------|----------------3--------------|----------------3--------------|
G|-----------2-------------------|-----------4---------4---------|-----------4---------4---------|
D|------2------------------------|------4-------------------4----|------4-------------------4----|
A|-0-------------------0----1----|-2-----------------------------|-2-----------------------------|
E|-------------------------------|-------------------------------|-------------------------------|

E|-------------------------------|-------------------------------|----------------0--------------|
B|----------------5--------------|----------------5--------------|-----------0---------0---------|
G|-----------6---------6---------|-----------6---------6---------|------1-------------------1----|
D|------6-------------------6----|------6-------------------6----|-------------------------------|
A|-4-----------------------------|-4-----------------------------|-------------------------------|
E|-------------------------------|-------------------------------|-0-----------------------------|

E|----------------0--------------|---------------------------------|---------------------------------------------|
B|-----------0---------0---------|---------------------------------|---------------------------------------------|
G|------1-------------------1----|-2-------------------------------|---------------------------------------------|
D|-------------------------------|-2-------------------------------|-------X----X--------------------------------|
A|-------------------------------|-0------2------2------0----------|-------X----X---4-----4----4---4------2------|
E|-0-----------------------------|----------------------------2----|-2-------------------------------------------|

E|---------------------------------|---------------------------------------------|---------------------------------|
B|---------------------------------|---------------------------------------------|---------------------------------|
G|---------------------------------|---------------------------------------------|-2-------------------------------|
D|-2-------------------------------|-------X----X--------------------------------|-2-------------------------------|
A|-0------2------2------0----------|-------X----X---4-----4----4---4------2------|-0------2------2------0-----1----|
E|----------------------------2----|-2-------------------------------------------|---------------------------------|

E|----------------------------------------|---------------------------------|--------------------------------------------|
B|----------------------------------------|---------------------------------|--------------------------------------------|
G|----------------------------------------|---------------------------------|--------------------------------------------|
D|-------X---X----------------------------|---------------------------------|--------------2----2----2----2----2----2----|
A|-2-----X---X---4------4------2-----3----|-4------5------5------4----------|--------------2----2----2----2----2----2----|
E|----------------------------------------|----------------------------12---|-0------0-----0----0----0----0----0----0----|

E|----------------------------|
B|----------------------------|
G|-2-------2----%---2---%-----|
D|-2-------2----%---2---%-----|
A|-0-------0--------0---------|
E|----------------------------|
Pink Floyd - In The Flesh (3)
Pink Floyd - In The Flesh (3).gp4