Pink Floyd - Is There Anybody Out There (3)

Pink Floyd



Title: Is there anybody out there ?
Album: 
Artist: 
Author: Roger WATERS

Track 1: Guitare
E|----------------0------------------------|----------------0------------------------|
B|-----------1---------1-------------------|-----------1---------1-------------------|
G|------2-------------------2---------2----|------2-------------------2---------2----|
D|-2-----------------------------2---------|-3-----------------------------3---------|
A|-----------------------------------------|-----------------------------------------|
E|-----------------------------------------|-----------------------------------------|

E|----------------0------------------------|----------------0------------------------|
B|-----------1---------1-------------------|-----------1---------1-------------------|
G|------2-------------------2---------2----|------2-------------------2---------2----|
D|-4-----------------------------4---------|-3-----------------------------3---------|
A|-----------------------------------------|-----------------------------------------|
E|-----------------------------------------|-----------------------------------------|

E|----------------0-------------------0----|----------------0-------------------0----|
B|-----------1-------------------1---------|-----------1-------------------1---------|
G|------2-------------------2--------------|------2-------------------2--------------|
D|-2-------------------0-------------------|-----------------------------------------|
A|-----------------------------------------|-3-------------------2-------------------|
E|-----------------------------------------|-----------------------------------------|

E|---------------------0-------------------|-----------------------------------------|
B|----------------1---------1--------------|----------------1------------------------|
G|-----------2-------------------2---------|-----------2---------2-------------------|
D|------2-----------------------------2----|------2-------------------2---------2----|
A|-0---------------------------------------|-0-----------------------------0---------|
E|-----------------------------------------|-----------------------------------------|

E|---------------------0---------------|-----------------------------------------|----------------0------------------------|
B|----------------1--------------------|----------------1------------------------|-----------1---------1-------------------|
G|-----------2---------------2---------|-----------2---------2---------2---------|------2-------------------2---------2----|
D|------2-------------------------2----|------2-------------------2---------2----|-2-----------------------------2---------|
A|-0-----------------------------------|-0---------------------------------------|-----------------------------------------|
E|-------------------------------------|-----------------------------------------|-----------------------------------------|

E|----------------0------------------------|----------------0------------------------|
B|-----------1---------1-------------------|-----------1---------1-------------------|
G|------2-------------------2---------2----|------2-------------------2---------2----|
D|-3-----------------------------3---------|-4-----------------------------4---------|
A|-----------------------------------------|-----------------------------------------|
E|-----------------------------------------|-----------------------------------------|

E|----------------0------------------------|------------------------------------0----|
B|-----------1---------1-------------------|-----------1-------------------1---------|
G|------2-------------------2---------2----|------2-------------------2--------------|
D|-3-----------------------------3---------|-3--------------2----0-------------------|
A|-----------------------------------------|-----------------------------------------|
E|-----------------------------------------|-----------------------------------------|

E|----------------0------------------------|---------------------0-------------------|
B|-----------1---------1-------------------|----------------1---------1--------------|
G|------2-------------------2--------------|-----------2-------------------2---------|
D|-0---------------------------------------|------2-----------------------------2----|
A|-------------------------------3----2----|-0---------------------------------------|
E|-----------------------------------------|-----------------------------------------|

E|-----------------------------------------|---------------------0-------------------|
B|----------------1------------------------|----------------1---------1--------------|
G|-----------2---------2-------------------|-----------2-------------------2---------|
D|------2-------------------2---------2----|------2-----------------------------2----|
A|-0-----------------------------0---------|-0---------------------------------------|
E|-----------------------------------------|-----------------------------------------|

E|---------------------0------|---------------------0-------------------|--------------------------0--------------|
B|----------------1-----------|----------------1---------1--------------|----------------1----3---------3---------|
G|-----------2----------------|-----------0-------------------0---------|-----------0------------------------0----|
D|------2---------------------|------2-----------------------------2----|------0----------------------------------|
A|-0--------------------------|-3---------------------------------------|-2---------------------------------------|
E|----------------------------|-----------------------------------------|-----------------------------------------|

E|---------------------0-------------------|-0---------------------------------------|
B|----------------0---------0---------1----|-----------3---------1---------0---------|
G|-----------2-------------------2---------|------4---------2---------0---------0----|
D|------2----------------------------------|-----------------------------------------|
A|-0---------------------------------------|-----------------------------------------|
E|-----------------------------------------|-----------------------------------------|

E|---------------------0-------------------|--------------------------0--------------|
B|----------------1---------1--------------|----------------1----3---------3---------|
G|-----------0-------------------0---------|-----------0------------------------0----|
D|------2-----------------------------2----|------0----------------------------------|
A|-3---------------------------------------|-2---------------------------------------|
E|-----------------------------------------|-----------------------------------------|

E|---------------------0-------------------|-8---------------7------|----------------0------------------------|
B|----------------0---------0---------5----|------------------------|-----------1---------1-------------------|
G|-----------2-------------------0---------|-------%----7-----------|------2-------------------2---------2----|
D|------2----------------------------------|-------%----------------|-2-----------------------------2---------|
A|-0---------------------------------------|------------------------|-----------------------------------------|
E|-----------------------------------------|------------------------|-----------------------------------------|

E|----------------0------------------------|----------------0------------------------|
B|-----------1---------1-------------------|-----------1---------1-------------------|
G|------2-------------------2---------2----|------2-------------------2---------2----|
D|-3-----------------------------3---------|-4-----------------------------4---------|
A|-----------------------------------------|-----------------------------------------|
E|-----------------------------------------|-----------------------------------------|

E|----------------0------------------------|----------------0-------------------0----|
B|-----------1---------1-------------------|-----------1-------------------1---------|
G|------2-------------------2---------2----|------2-------------------2--------------|
D|-3-----------------------------3---------|-2-------------------0-------------------|
A|-----------------------------------------|-----------------------------------------|
E|-----------------------------------------|-----------------------------------------|

E|----------------0-------------------0----|--------------------------5----7----8----|
B|-----------1-------------------1---------|----------------1----5-------------------|
G|------2-------------------2--------------|-----------2-----------------------------|
D|-----------------------------------------|------2----------------------------------|
A|-3-------------------2-------------------|-0---------------------------------------|
E|-----------------------------------------|-----------------------------------------|

E|-12------|
B|-10------|
G|-9-------|
D|-10------|
A|-0-------|
E|---------|
Pink Floyd - Is There Anybody Out There (3)
Pink Floyd - Is There Anybody Out There (3).gp3