Pink Floyd - Keep Talking (2)

Pink Floyd



Title: Keep Talking
Album: The Division Bell
Artist: Pink Floyd
Author: 

Track 1: Rick Wright Solo
E|---------|---------------------24-|-24----22----24------------------24---|-24---22---22----24---24----------------24---24-|
B|---------|------------------------|------------------22----22-24---------|----------------------------------22------------|
G|-%-------|-24--%-------%----%-----|--------------------------------------|--------------%----------24----24---------------|
D|-%-------|-----%-------%----%-----|--------------------------------------|--------------%---------------------------------|
A|---------|------------------------|--------------------------------------|------------------------------------------------|
E|---------|------------------------|--------------------------------------|------------------------------------------------|

E|-24-22---22----24---24-------------24----22--|-22---24---24------------22---22-24----22---|
B|-----------------------22----24--------------|--------------22----24----------------------|
G|------------%--------------------------------|--------------------------------------------|
D|------------%--------------------------------|--------------------------------------------|
A|---------------------------------------------|--------------------------------------------|
E|---------------------------------------------|--------------------------------------------|

E|-22---24---24-------------24----22----|-24---24----------------24----22---22-24---|
B|--------------22----24----------------|---------------22----22--------------------|
G|--------------------------------------|---------24--------------------------------|
D|--------------------------------------|-------------------------------------------|
A|--------------------------------------|-------------------------------------------|
E|--------------------------------------|-------------------------------------------|

E|-24--------------24---24----22---22-24---24-|---------------22---22-24----22---22-24------|
B|-----22----24-------------------------------|-22----24---24-------------------------------|
G|-------------------------%------------------|------------------------------------------%--|
D|-------------------------%------------------|------------------------------------------%--|
A|--------------------------------------------|---------------------------------------------|
E|--------------------------------------------|---------------------------------------------|

E|------------------24-------22---22-24------------|---------------24----22---22-24------------------|
B|-22-------24---24--------------------------------|------22-----------------------------22-------24-|
G|-------%----------------%---------------%----24--|-24--------%----------------------%--------%-----|
D|-------%----------------%---------------%--------|-----------%----------------------%--------%-----|
A|-------------------------------------------------|-------------------------------------------------|
E|-------------------------------------------------|-------------------------------------------------|

E|------24-------22---22-24-------------------------|---------|---------|---------|
B|-24--------------------------------------22-------|---------|---------|---------|
G|------------%---------------%----24---24------%---|-%-------|-%-------|-%-------|
D|------------%---------------%-----------------%---|-%-------|-%-------|-%-------|
A|--------------------------------------------------|---------|---------|---------|
E|--------------------------------------------------|---------|---------|---------|

E|---------|---------|---------|---------|---------|---------|---------|---------|---------|
B|---------|---------|---------|---------|---------|---------|---------|---------|---------|
G|-%-------|-%-------|-%-------|-%-------|-%-------|-%-------|-%-------|-%-------|-%-------|
D|-%-------|-%-------|-%-------|-%-------|-%-------|-%-------|-%-------|-%-------|-%-------|
A|---------|---------|---------|---------|---------|---------|---------|---------|---------|
E|---------|---------|---------|---------|---------|---------|---------|---------|---------|

E|---------|---------|---------|---------|---------|---------|---------|---------|---------|
B|---------|---------|---------|---------|---------|---------|---------|---------|---------|
G|-%-------|-%-------|-%-------|-%-------|-%-------|-%-------|-%-------|-%-------|-%-------|
D|-%-------|-%-------|-%-------|-%-------|-%-------|-%-------|-%-------|-%-------|-%-------|
A|---------|---------|---------|---------|---------|---------|---------|---------|---------|
E|---------|---------|---------|---------|---------|---------|---------|---------|---------|

E|---------|---------|---------|---------|---------|---------|---------|---------|---------|
B|---------|---------|---------|---------|---------|---------|---------|---------|---------|
G|-%-------|-%-------|-%-------|-%-------|-%-------|-%-------|-%-------|-%-------|-%-------|
D|-%-------|-%-------|-%-------|-%-------|-%-------|-%-------|-%-------|-%-------|-%-------|
A|---------|---------|---------|---------|---------|---------|---------|---------|---------|
E|---------|---------|---------|---------|---------|---------|---------|---------|---------|

E|---------|---------|---------|---------|---------|---------|---------|---------|---------|
B|---------|---------|---------|---------|---------|---------|---------|---------|---------|
G|-%-------|-%-------|-%-------|-%-------|-%-------|-%-------|-%-------|-%-------|-%-------|
D|-%-------|-%-------|-%-------|-%-------|-%-------|-%-------|-%-------|-%-------|-%-------|
A|---------|---------|---------|---------|---------|---------|---------|---------|---------|
E|---------|---------|---------|---------|---------|---------|---------|---------|---------|

E|---------|---------|---------|---------|---------|---------|---------|---------|---------|
B|---------|---------|---------|---------|---------|---------|---------|---------|---------|
G|-%-------|-%-------|-%-------|-%-------|-%-------|-%-------|-%-------|-%-------|-%-------|
D|-%-------|-%-------|-%-------|-%-------|-%-------|-%-------|-%-------|-%-------|-%-------|
A|---------|---------|---------|---------|---------|---------|---------|---------|---------|
E|---------|---------|---------|---------|---------|---------|---------|---------|---------|

E|---------|---------|---------|---------|---------|---------|---------|---------|---------|
B|---------|---------|---------|---------|---------|---------|---------|---------|---------|
G|-%-------|-%-------|-%-------|-%-------|-%-------|-%-------|-%-------|-%-------|-%-------|
D|-%-------|-%-------|-%-------|-%-------|-%-------|-%-------|-%-------|-%-------|-%-------|
A|---------|---------|---------|---------|---------|---------|---------|---------|---------|
E|---------|---------|---------|---------|---------|---------|---------|---------|---------|

E|---------|---------|---------|---------|---------|---------|---------|---------|---------|
B|---------|---------|---------|---------|---------|---------|---------|---------|---------|
G|-%-------|-%-------|-%-------|-%-------|-%-------|-%-------|-%-------|-%-------|-%-------|
D|-%-------|-%-------|-%-------|-%-------|-%-------|-%-------|-%-------|-%-------|-%-------|
A|---------|---------|---------|---------|---------|---------|---------|---------|---------|
E|---------|---------|---------|---------|---------|---------|---------|---------|---------|

E|---------|---------|---------|---------|---------|---------|---------|-------------12---12------10---|
B|---------|---------|---------|---------|---------|---------|---------|-------------------------------|
G|-%-------|-%-------|-%-------|-%-------|-%-------|-%-------|-%-------|-%------%------------%---------|
D|-%-------|-%-------|-%-------|-%-------|-%-------|-%-------|-%-------|-%------%------------%---------|
A|---------|---------|---------|---------|---------|---------|---------|-------------------------------|
E|---------|---------|---------|---------|---------|---------|---------|-------------------------------|

E|-12---10---12-----12------15--15--15------|-15--15--15-------------15---17---|-19-----22----24---27---|
B|--------------------------------------17--|-------------17-----17------------|------------------------|
G|-----------------------%------------------|----------------------------------|------------------------|
D|-----------------------%------------------|----------------------------------|------------------------|
A|------------------------------------------|----------------------------------|------------------------|
E|------------------------------------------|----------------------------------|------------------------|

E|-24-----24-------------|---------------------------------------|-------------------|
B|----------------24-----|-22------------------------------------|-------------------|
G|------------%----------|-----23-----------------%--------------|---------------%---|
D|------------%----------|---------24-----24---24-%------24------|-24------24----%---|
A|-----------------------|---------------------------24------24--|-------------------|
E|-----------------------|---------------------------------------|-------------------|

E|-------------19----22----|-22-----22----22----22--21--19--22--|-19----------------------|
B|-------20----------------|------------------------------------|---------20--19--17--19--|
G|-21----------------------|-----------------%------------------|-------------------------|
D|-------------------------|-----------------%------------------|-------------------------|
A|-------------------------|------------------------------------|-------------------------|
E|-------------------------|------------------------------------|-------------------------|

E|-----------------22------24------|-24------27--29--27--24--|-24------24---24------|
B|-17-----17----17-------------24--|-------------------------|----------------------|
G|----------------------%----------|-------------------------|-----------------%----|
D|----------------------%----------|-------------------------|-----------------%----|
A|---------------------------------|-------------------------|----------------------|
E|---------------------------------|-------------------------|----------------------|

E|-19--20-----20----19----17----17----|-15-----15--------15--14--12--14--|-12------10--------|
B|------------------------------------|----------------------------------|--------------12---|
G|---------------%-----------------%--|--------------%-------------------|-------------------|
D|---------------%-----------------%--|--------------%-------------------|-------------------|
A|------------------------------------|----------------------------------|-------------------|
E|------------------------------------|----------------------------------|-------------------|

E|-------------------|---------|---------|---------|---------|---------|---------|---------|
B|-12------12--------|---------|---------|---------|---------|---------|---------|---------|
G|--------------%----|-%-------|-%-------|-%-------|-%-------|-%-------|-%-------|-%-------|
D|--------------%----|-%-------|-%-------|-%-------|-%-------|-%-------|-%-------|-%-------|
A|-------------------|---------|---------|---------|---------|---------|---------|---------|
E|-------------------|---------|---------|---------|---------|---------|---------|---------|

E|---------|---------|---------|---------|---------|---------|---------|---------|---------|
B|---------|---------|---------|---------|---------|---------|---------|---------|---------|
G|-%-------|-%-------|-%-------|-%-------|-%-------|-%-------|-%-------|-%-------|-%-------|
D|-%-------|-%-------|-%-------|-%-------|-%-------|-%-------|-%-------|-%-------|-%-------|
A|---------|---------|---------|---------|---------|---------|---------|---------|---------|
E|---------|---------|---------|---------|---------|---------|---------|---------|---------|

E|---------|---------|---------|---------|---------|---------|---------|---------|---------|
B|---------|---------|---------|---------|---------|---------|---------|---------|---------|
G|-%-------|-%-------|-%-------|-%-------|-%-------|-%-------|-%-------|-%-------|-%-------|
D|-%-------|-%-------|-%-------|-%-------|-%-------|-%-------|-%-------|-%-------|-%-------|
A|---------|---------|---------|---------|---------|---------|---------|---------|---------|
E|---------|---------|---------|---------|---------|---------|---------|---------|---------|

E|---------|---------|---------|---------|---------|---------|---------|---------|---------|
B|---------|---------|---------|---------|---------|---------|---------|---------|---------|
G|-%-------|-%-------|-%-------|-%-------|-%-------|-%-------|-%-------|-%-------|-%-------|
D|-%-------|-%-------|-%-------|-%-------|-%-------|-%-------|-%-------|-%-------|-%-------|
A|---------|---------|---------|---------|---------|---------|---------|---------|---------|
E|---------|---------|---------|---------|---------|---------|---------|---------|---------|

E|---------|---------|---------|---------|---------|---------|---------|---------|---------|
B|---------|---------|---------|---------|---------|---------|---------|---------|---------|
G|-%-------|-%-------|-%-------|-%-------|-%-------|-%-------|-%-------|-%-------|-%-------|
D|-%-------|-%-------|-%-------|-%-------|-%-------|-%-------|-%-------|-%-------|-%-------|
A|---------|---------|---------|---------|---------|---------|---------|---------|---------|
E|---------|---------|---------|---------|---------|---------|---------|---------|---------|

E|---------|---------|---------|---------|---------|---------|
B|---------|---------|---------|---------|---------|---------|
G|-%-------|-%-------|-%-------|-%-------|-%-------|-%-------|
D|-%-------|-%-------|-%-------|-%-------|-%-------|-%-------|
A|---------|---------|---------|---------|---------|---------|
E|---------|---------|---------|---------|---------|---------|
Pink Floyd - Keep Talking (2)
Pink Floyd - Keep Talking (2).gp3