Pink Floyd - Learning To Fly

Pink Floyd



Title: Learning To Fly
Album: A Momentary Lapse of Reason
Artist: Pink Floyd
Author: Pink Floyd

Track 1: Bass
G|---------|---------|---------|---------|-----------------------------------------------------------------|
D|-%-------|-%-------|-%-------|-%-------|------%-------%-------%-------%-------%-------%-------%-------%--|
A|-%-------|-%-------|-%-------|-%-------|------%-------%-------%-------%-------%-------%-------%-------%--|
E|---------|---------|---------|---------|-3-------3-------3-------3-------3-------3-------3-------3-------|

G|-----------------------------------------------------------------|-----------------------------------------------------------------|
D|------%-------%------5--------%-------%-------%------------------|------%-------%-------%-------%-------%-------%-------%-------%--|
A|------%-------%---------------%-------%-------%------2---0-------|------%-------%-------%-------%-------%-------%-------%-------%--|
E|-3-------3-------3-------3-------3-------3-------3-----------3---|-0-------0-------0-------0-------0-------0-------0-------0-------|

G|-----------------------------------------------------------|-----------------------------------------------------------------|
D|------%-------%-------%-------%-------%--2----0------------|------%-------%-------%-------%-------%-------%-------%-------%--|
A|------%-------%-------%-------%-------%-----------2---0----|------%-------%-------%-------%-------%-------%-------%-------%--|
E|-0-------0-------0-------0-------0-------------------------|-3-------3-------3-------3-------3-------3-------3-------3-------|

G|-----------------------------------------------------------------|-----------------------------------------------------------------|
D|------%-------%------5--------%-------%-------%------------------|------%-------%-------%-------%-------%-------%-------%-------%--|
A|------%-------%---------------%-------%-------%------2---0-------|------%-------%-------%-------%-------%-------%-------%-------%--|
E|-3-------3-------3-------3-------3-------3-------3-----------3---|-0-------0-------0-------0-------0-------0-------0-------0-------|

G|-----------------------------------------------------|-----------------------------------------------------------------|
D|------%-------%-------%-------%--2----0----0---------|------%-------%-------%-------%-------%-------%-------%-------%--|
A|------%-------%-------%-------%----------------------|------%-------%-------%-------%-------%-------%-------%-------%--|
E|-0-------0-------0-------0----------------------3----|-3-------3-------3-------3-------3-------3-------3-------3-------|

G|-----------------------------------------------------------------|-----------------------------------------------------------------|
D|------%-------%------5--------%-------%-------%------------------|------%-------%-------%-------%-------%-------%-------%-------%--|
A|------%-------%---------------%-------%-------%------2---0-------|------%-------%-------%-------%-------%-------%-------%-------%--|
E|-3-------3-------3-------3-------3-------3-------3-----------3---|-0-------0-------0-------0-------0-------0-------0-------0-------|

G|-----------------------------------------------------|-----------------------------------------------------------------|
D|------%-------%-------%-------%--2----0----0---------|------%-------%-------%-------%-------%-------%-------%-------%--|
A|------%-------%-------%-------%----------------------|------%-------%-------%-------%-------%-------%-------%-------%--|
E|-0-------0-------0-------0----------------------3----|-3-------3-------3-------3-------3-------3-------3-------3-------|

G|-----------------------------------------------------------------|-----------------------------------------------------------------|
D|------%-------%------5--------%-------%-------%------------------|------%-------%-------%-------%-------%-------%-------%-------%--|
A|------%-------%---------------%-------%-------%------2---0-------|------%-------%-------%-------%-------%-------%-------%-------%--|
E|-3-------3-------3-------3-------3-------3-------3-----------3---|-0-------0-------0-------0-------0-------0-------0-------0-------|

G|-----------------------------------------------------|-----------------------------------------------------------------|
D|------%-------%-------%-------%-------0----0---------|------%-------%-------%-------%-------%-------%-------%-------%--|
A|------%-------%-------%-------%-----------------3----|-3----%--3----%--3----%--3----%--3----%--3----%--2----%--2----%--|
E|-0-------0-------0-------0-------0-------------------|-----------------------------------------------------------------|

G|-----------------------------------------------------------------|-----------------------------------------------------------------|
D|------%-------%-------%-------%-------%-------%-------%-------%--|------%-------%-------%-------%-------%-------%-------%--3----%--|
A|-0----%--0----%--0----%--0----%--0----%--0----%-------%-------%--|------%-------%-------%-------%-------%-------%--3----%-------%--|
E|-------------------------------------------------3-------3-------|-1-------1-------1-------1-------1-------1-----------------------|

G|-----------------------------------------------------------------|-----------------------------------------------------------------|
D|------%-------%-------%-------%--0----%--0----%--0----%--0----%--|------%-------%-------%-------%-------%-------%-------%-------%--|
A|-3----%--3----%--3----%--3----%-------%-------%-------%-------%--|------%-------%-------%-------%-------%-------%-------%-------%--|
E|-----------------------------------------------------------------|-3-------3-------3-------3-------3-------3-------3-------3-------|

G|-----------------------------------------------------------------|-----------------------------------------------------------------|
D|------%-------%-------%-------%-------%-------%-------%-------%--|------%-------%-------%-------%-------%-------%-------%-------%--|
A|------%-------%-------%-------%-------%-------%-------%-------%--|------%-------%-------%-------%-------%-------%-------%-------%--|
E|-3-------3-------3-------3-------3-------3-------3-------3-------|-0-------0-------0-------0-------0-------0-------0-------0-------|

G|---------|-----------------------------------------------------------------|-----------------------------------------------------------------|
D|-%-------|------%-------%-------%-------%-------%-------%-------%-------%--|------%-------%------5--------%-------%-------%------------------|
A|-%-------|------%-------%-------%-------%-------%-------%-------%-------%--|------%-------%---------------%-------%-------%------2---0-------|
E|---------|-3-------3-------3-------3-------3-------3-------3-------3-------|-3-------3-------3-------3-------3-------3-------3-----------3---|

G|-----------------------------------------------------------------|-----------------------------------------------------|
D|------%-------%-------%-------%-------%-------%-------%-------%--|------%-------%-------%-------%--2----0----0---------|
A|------%-------%-------%-------%-------%-------%-------%-------%--|------%-------%-------%-------%----------------------|
E|-0-------0-------0-------0-------0-------0-------0-------0-------|-0-------0-------0-------0----------------------3----|

G|-----------------------------------------------------------------|-----------------------------------------------------------------|
D|------%-------%-------%-------%-------%-------%-------%-------%--|------%-------%------5--------%-------%-------%------------------|
A|------%-------%-------%-------%-------%-------%-------%-------%--|------%-------%---------------%-------%-------%------2---0-------|
E|-3-------3-------3-------3-------3-------3-------3-------3-------|-3-------3-------3-------3-------3-------3-------3-----------3---|

G|-----------------------------------------------------------------|-----------------------------------------------------|
D|------%-------%-------%-------%-------%-------%-------%-------%--|------%-------%-------%-------%-------0----0---------|
A|------%-------%-------%-------%-------%-------%-------%-------%--|------%-------%-------%-------%-----------------3----|
E|-0-------0-------0-------0-------0-------0-------0-------0-------|-0-------0-------0-------0-------0-------------------|

G|-----------------------------------------------------------------|-----------------------------------------------------------------|
D|------%-------%-------%-------%-------%-------%-------%-------%--|------%-------%-------%-------%-------%-------%-------%-------%--|
A|-3----%--3----%--3----%--3----%--3----%--3----%--2----%--2----%--|-0----%--0----%--0----%--0----%--0----%--0----%-------%-------%--|
E|-----------------------------------------------------------------|-------------------------------------------------3-------3-------|

G|-----------------------------------------------------------------|-----------------------------------------------------------------|
D|------%-------%-------%-------%-------%-------%-------%--3----%--|------%-------%-------%-------%-------%-------%-------%-------%--|
A|------%-------%-------%-------%-------%-------%--3----%-------%--|-3----%--3----%--3----%--3----%--3----%--3----%--3----%--3----%--|
E|-1-------1-------1-------1-------1-------1-----------------------|-----------------------------------------------------------------|

G|-----------------------------------------------------------------|-----------------------------------------------------------------|
D|------%-------%-------%-------%-------%-------%-------%-------%--|------%-------%-------%-------%-------%-------%-------%-------%--|
A|-3----%--3----%--3----%--3----%--3----%--3----%--2----%--2----%--|-0----%--0----%--0----%--0----%--0----%--0----%-------%-------%--|
E|-----------------------------------------------------------------|-------------------------------------------------3-------3-------|

G|-----------------------------------------------------------------|-----------------------------------------------------------------|
D|------%-------%-------%-------%-------%-------%-------%--3----%--|------%-------%-------%-------%--0----%--0----%--0----%--0----%--|
A|------%-------%-------%-------%-------%-------%--3----%-------%--|-3----%--3----%--3----%--3----%-------%-------%-------%-------%--|
E|-1-------1-------1-------1-------1-------1-----------------------|-----------------------------------------------------------------|

G|---------------------2----------------------------|---------------------2----------------------------|
D|------%--------%----------2---0-------%-------%---|------%--------%----------2---0-------%-------%---|
A|-0----%---0----%------------------3---%---2---%---|-0----%---0----%------------------3---%---4---%---|
E|--------------------------------------------------|--------------------------------------------------|

G|--------------------------------------------|---------|---------|---------|---------|
D|-0----%---0----%----------0---4-------------|-%-------|-%-------|-%-------|-%-------|
A|------%--------%-----0------------0---------|-%-------|-%-------|-%-------|-%-------|
E|---------------------------------------0----|---------|---------|---------|---------|

G|---------|---------|---------|---------|---------|---------|---------|---------|---------|
D|-%-------|-%-------|-%-------|-%-------|-%-------|-%-------|-%-------|-%-------|-%-------|
A|-%-------|-%-------|-%-------|-%-------|-%-------|-%-------|-%-------|-%-------|-%-------|
E|---------|---------|---------|---------|---------|---------|---------|---------|---------|

G|-----------------------------------------------------------------|-----------------------------------------------------------------|
D|------%-------%-------%-------%-------%-------%-------%-------%--|------%-------%-------%-------%-------%-------%-------%-------%--|
A|-3----%--3----%--3----%--3----%--3----%--3----%--2----%--2----%--|-0----%--0----%--0----%--0----%--0----%--0----%-------%-------%--|
E|-----------------------------------------------------------------|-------------------------------------------------3-------3-------|

G|-----------------------------------------------------------------|-----------------------------------------------------------------|
D|------%-------%-------%-------%-------%-------%-------%--3----%--|------%-------%-------%-------%-------%-------%-------%-------%--|
A|------%-------%-------%-------%-------%-------%--3----%-------%--|-3----%--3----%--3----%--3----%--3----%--3----%--3----%--3----%--|
E|-1-------1-------1-------1-------1-------1-----------------------|-----------------------------------------------------------------|

G|-----------------------------------------------------------------|-----------------------------------------------------------------|
D|------%-------%-------%-------%-------%-------%-------%-------%--|------%-------%-------%-------%-------%-------%-------%-------%--|
A|-3----%--3----%--3----%--3----%--3----%--3----%--2----%--2----%--|-0----%--0----%--0----%--0----%--0----%--0----%-------%-------%--|
E|-----------------------------------------------------------------|-------------------------------------------------3-------3-------|

G|-----------------------------------------------------------------|-----------------------------------------------------------------|
D|------%-------%-------%-------%-------%-------%-------%--3----%--|------%-------%-------%-------%--0----%--0----%--0----%--0----%--|
A|------%-------%-------%-------%-------%-------%--3----%-------%--|-3----%--3----%--3----%--3----%-------%-------%-------%-------%--|
E|-1-------1-------1-------1-------1-------1-----------------------|-----------------------------------------------------------------|

G|-----------------------------------------------------------------|-----------------------------------------------------------------|
D|------%-------%-------%-------%-------%-------%-------%-------%--|------%-------%------5--------%-------%-------%------------------|
A|------%-------%-------%-------%-------%-------%-------%-------%--|------%-------%---------------%-------%-------%------2---0-------|
E|-3-------3-------3-------3-------3-------3-------3-------3-------|-3-------3-------3-------3-------3-------3-------3-----------3---|

G|-----------------------------------------------------------------|-----------------------------------------------------|
D|------%-------%-------%-------%-------%-------%-------%-------%--|------%-------%-------%-------%--2----0----0---------|
A|------%-------%-------%-------%-------%-------%-------%-------%--|------%-------%-------%-------%----------------------|
E|-0-------0-------0-------0-------0-------0-------0-------0-------|-0-------0-------0-------0----------------------3----|

G|-----------------------------------------------------------------|-----------------------------------------------------------------|
D|------%-------%-------%-------%-------%-------%-------%-------%--|------%-------%------5--------%-------%-------%------------------|
A|------%-------%-------%-------%-------%-------%-------%-------%--|------%-------%---------------%-------%-------%------2---0-------|
E|-3-------3-------3-------3-------3-------3-------3-------3-------|-3-------3-------3-------3-------3-------3-------3-----------3---|

G|-----------------------------------------------------------------|-----------------------------------------------------|
D|------%-------%-------%-------%-------%-------%-------%-------%--|------%-------%-------%-------%--2----0----0---------|
A|------%-------%-------%-------%-------%-------%-------%-------%--|------%-------%-------%-------%----------------------|
E|-0-------0-------0-------0-------0-------0-------0-------0-------|-0-------0-------0-------0----------------------3----|

G|-----------------------------------------------------------------|-----------------------------------------------------------------|
D|------%-------%-------%-------%-------%-------%-------%-------%--|------%-------%------5--------%-------%-------%------------------|
A|------%-------%-------%-------%-------%-------%-------%-------%--|------%-------%---------------%-------%-------%------2---0-------|
E|-3-------3-------3-------3-------3-------3-------3-------3-------|-3-------3-------3-------3-------3-------3-------3-----------3---|

G|-----------------------------------------------------------------|-----------------------------------------------------|
D|------%-------%-------%-------%-------%-------%-------%-------%--|------%-------%-------%-------%--2----0----0---------|
A|------%-------%-------%-------%-------%-------%-------%-------%--|------%-------%-------%-------%----------------------|
E|-0-------0-------0-------0-------0-------0-------0-------0-------|-0-------0-------0-------0----------------------3----|

G|-------------------|---------|---------|---------|---------|---------|---------|-----0-----------------------------------------------------------|
D|------%-------%----|-%-------|-%-------|-%-------|-%-------|-%-------|-%-------|-4-------4---2---4---2---0---2---0-------0-----------------------|
A|------%-------%----|-%-------|-%-------|-%-------|-%-------|-%-------|-%-------|-------------------------------------3-------3---2---3---2---0---|
E|-3-----------------|---------|---------|---------|---------|---------|---------|-----------------------------------------------------------------|

G|-------------------------------|---------|---------|
D|----%-----%------%-----%----%--|-%-------|-%-------|
A|----%-----%------%-----%----%--|-%-------|-%-------|
E|-3-----3-----------------------|---------|---------|
Pink Floyd - Learning To Fly
Pink Floyd - Learning To Fly.gp3