Pink Floyd - Lost For Words

Pink Floyd



Title: Lost For Words
Album: 
Artist: 
Author: Pink Floyd

Track 1: Guitare 1
E|-------------------------------|-----------------------------------------------|-----------------------------------------------|
B|-------------------------------|-1--------------1----1----1---1---1------------|-----------------------------------------------|
G|-%------%---------0-------0----|-0--------------0----0----0---0---0----0---0---|-0---0--------0----0----0-----------------0----|
D|-%------%---------0-------0----|-0---2-----2----2----2-----------------0---0---|-0---0---0----0----0--------------0-------0----|
A|-------------2----0---2--------|-----------------------------------------------|-0---2--------2--------------2----0---2--------|
E|-------------3-----------------|-----------------------------------------------|-----------------------------3-----------------|

E|-----------------------------------------------|-----------------------------------------------|
B|-1--------------1----1----1---1---1------------|-----------------------------------------------|
G|-0--------------0----0----0---0---0----0---0---|-0---0--------0----0----0-----------------0----|
D|-0---2-----2----2----2-----------------0---0---|-0---0---0----0----0--------------0-------0----|
A|-----------------------------------------------|-0---2--------2--------------2----0---2--------|
E|-----------------------------------------------|-----------------------------3-----------------|

E|-----------------------------------------------|------------0----------0-----|-------2-----------------2---2----------------|
B|-1----------------------------1----------------|------------0----0-----0-----|-------3-----------------3---3------------0---|
G|-0--------------0----0----0---0---0----0---0---|-0----------0----0-----0-----|-2-----2-----------------2---2------------0---|
D|-0---2-----2----2----2----2-------0----0---0---|-2----------2----2-----2-----|-0-----0-----------------0------------0-------|
A|---------------------------------------3-------|-2-----2---------2-----2-----|-0-----0----0---2---0------------3------------|
E|-----------------------------------------------|-0-----0---------------------|----------------------------------------------|

E|------------0---------------------------|---------|---------|---------|---------|
B|------------1---------------------------|---------|---------|---------|---------|
G|-0----------0----0-----------------0----|-%-------|-%-------|-%-------|-%-------|
D|-2----------2----2-----------------0----|-%-------|-%-------|-%-------|-%-------|
A|-3----------3----3----2----0---2--------|---------|---------|---------|---------|
E|-0-----0---------0----3-----------------|---------|---------|---------|---------|

E|---------|---------|---------|---------|---------|---------|---------|---------|---------|
B|---------|---------|---------|---------|---------|---------|---------|---------|---------|
G|-%-------|-%-------|-%-------|-%-------|-%-------|-%-------|-%-------|-%-------|-%-------|
D|-%-------|-%-------|-%-------|-%-------|-%-------|-%-------|-%-------|-%-------|-%-------|
A|---------|---------|---------|---------|---------|---------|---------|---------|---------|
E|---------|---------|---------|---------|---------|---------|---------|---------|---------|

E|---------|---------|---------|---------|---------|---------|---------|---------|---------|
B|---------|---------|---------|---------|---------|---------|---------|---------|---------|
G|-%-------|-%-------|-%-------|-%-------|-%-------|-%-------|-%-------|-%-------|-%-------|
D|-%-------|-%-------|-%-------|-%-------|-%-------|-%-------|-%-------|-%-------|-%-------|
A|---------|---------|---------|---------|---------|---------|---------|---------|---------|
E|---------|---------|---------|---------|---------|---------|---------|---------|---------|

E|---------|---------|---------|---------|---------|---------|---------|---------|---------|
B|---------|---------|---------|---------|---------|---------|---------|---------|---------|
G|-%-------|-%-------|-%-------|-%-------|-%-------|-%-------|-%-------|-%-------|-%-------|
D|-%-------|-%-------|-%-------|-%-------|-%-------|-%-------|-%-------|-%-------|-%-------|
A|---------|---------|---------|---------|---------|---------|---------|---------|---------|
E|---------|---------|---------|---------|---------|---------|---------|---------|---------|

E|---------|---------|---------|---------|---------|---------|---------|---------|---------|
B|---------|---------|---------|---------|---------|---------|---------|---------|---------|
G|-%-------|-%-------|-%-------|-%-------|-%-------|-%-------|-%-------|-%-------|-%-------|
D|-%-------|-%-------|-%-------|-%-------|-%-------|-%-------|-%-------|-%-------|-%-------|
A|---------|---------|---------|---------|---------|---------|---------|---------|---------|
E|---------|---------|---------|---------|---------|---------|---------|---------|---------|

E|---------|---------|-1-----1----1-----1----1----1----|-1-----1----1-----1----1----1----|
B|---------|---------|-1-----1----1-----1----1----1----|-1-----1----1-----1----1----1----|
G|-%-------|-%-------|-0-----0----0-----0----0----0----|-0-----0----0-----0----0----0----|
D|-%-------|-%-------|-3-----3----3-----3----3----3----|-3-----3----3-----3----3----3----|
A|---------|---------|---------------------------------|---------------------------------|
E|---------|---------|---------------------------------|---------------------------------|

E|-0-----0----0-----0----0----0----|-0-----0----0-----0----0----0----|-0-----0----0-----0----0----0----|
B|-0-----0----0-----0----0----0----|-2-----2----2-----2----2----2----|-1-----1----1-----1----1----1----|
G|-2-----2----2-----2----2----2----|-2-----2----2-----2----2----2----|-0-----0----0-----0----0----0----|
D|-2-----2----2-----2----2----2----|-2-----2----2-----2----2----2----|-2-----2----2-----2----2----2----|
A|-0-----0----0-----0----0----0----|-0-----0----0-----0----0----0----|-3-----3----3-----3----3----3----|
E|---------------------------------|---------------------------------|---------------------------------|

E|-0-----0----0-----0----0----0----|-0-----0----0-----0----0----0----|-0----0----0----0----0----0----0----0----|
B|-1-----1----1-----1----1----1----|-2-----2----2-----2----2----2----|-2----2----2----2----2----2----2----2----|
G|-0-----0----0-----0----0----0----|-2-----2----2-----2----2----2----|-2----2----2----2----2----2----2----2----|
D|-2-----2----2-----2----2----2----|-2-----2----2-----2----2----2----|-2----2----2----2----2----2----2----2----|
A|-3-----3----3-----3----3----3----|-0-----0----0-----0----0----0----|-0----0----0----0----0----0----0----0----|
E|---------------------------------|---------------------------------|-----------------------------------------|

E|-3----3----3----3----3----3----3----3----|-0----0----0----0----0----0----0----0----|
B|-0----0----0----0----0----0----0----0----|-1----1----1----1----1----1----1----1----|
G|-0----0----0----0----0----0----0----0----|-0----0----0----0----0----0----0----0----|
D|-0----0----0----0----0----0----0----0----|-2----2----2----2----2----2----2----2----|
A|-2----2----2----2----2----2----2----2----|-3----3----3----3----3----3----3----3----|
E|-3----3----3----3----3----3----3----3----|-0----0----0----0----0----0----0----0----|

E|-3----3----3----3----3----3----3----3----|-0----0----0----0----0----0----0----0----|
B|-0----0----0----0----0----0----0----0----|-1----1----1----1----1----1----1----1----|
G|-0----0----0----0----0----0----0----0----|-0----0----0----0----0----0----0----0----|
D|-0----0----0----0----0----0----0----0----|-2----2----2----2----2----2----2----2----|
A|-2----2----2----2----2----2----2----2----|-3----3----3----3----3----3----3----3----|
E|-3----3----3----3----3----3----3----3----|-0----0----0----0----0----0----0----0----|

E|-3----3----3----3----3----3----3----3----|-7----7----7----7----7----7----7----7----|
B|-0----0----0----0----0----0----0----0----|-8----8----8----8----8----8----8----8----|
G|-0----0----0----0----0----0----0----0----|-9----9----9----9----9----9----9----9----|
D|-0----0----0----0----0----0----0----0----|-9----9----9----9----9----9----9----9----|
A|-2----2----2----2----2----2----2----2----|-7----7----7----7----7----7----7----7----|
E|-3----3----3----3----3----3----3----3----|-----------------------------------------|

E|-0----0----0----0----0----0----0----0----|-3----3----3----3----3----3----3----3----|
B|-2----2----2----2----2----2----2----2----|-3----3----3----3----3----3----3----3----|
G|-2----2----2----2----2----2----2----2----|-0----0----0----0----0----0----0----0----|
D|-2----2----2----2----2----2----2----2----|-0----0----0----0----0----0----0----0----|
A|-0----0----0----0----0----0----0----0----|-0----0----0----0----0----0----0----0----|
E|-----------------------------------------|-3----3----3----3----3----3----3----3----|

E|-3----3----3----3----3----3----3----3----|-3----3----3----3----3----3----3----3----|
B|-0----0----0----0----0----0----0----0----|-0----0----0----0----0----0----0----0----|
G|-0----0----0----0----0----0----0----0----|-0----0----0----0----0----0----0----0----|
D|-0----0----0----0----0----0----0----0----|-0----0----0----0----0----0----0----0----|
A|-2----2----2----2----2----2----2----2----|-2----2----2----2----2----2----2----2----|
E|-3----3----3----3----3----3----3----3----|-3----3----3----3----3----3----3----3----|

E|-0----0----0----0----0----0----0----0----|-3----3----3----3----3----3----3----3----|
B|-1----1----1----1----1----1----1----1----|-0----0----0----0----0----0----0----0----|
G|-0----0----0----0----0----0----0----0----|-0----0----0----0----0----0----0----0----|
D|-2----2----2----2----2----2----2----2----|-0----0----0----0----0----0----0----0----|
A|-3----3----3----3----3----3----3----3----|-2----2----2----2----2----2----2----2----|
E|-0----0----0----0----0----0----0----0----|-3----3----3----3----3----3----3----3----|

E|-0----0----0----0----0----0----0----0----|-3----3----3----3----3----3----3----3----|
B|-1----1----1----1----1----1----1----1----|-0----0----0----0----0----0----0----0----|
G|-0----0----0----0----0----0----0----0----|-0----0----0----0----0----0----0----0----|
D|-2----2----2----2----2----2----2----2----|-0----0----0----0----0----0----0----0----|
A|-3----3----3----3----3----3----3----3----|-2----2----2----2----2----2----2----2----|
E|-0----0----0----0----0----0----0----0----|-3----3----3----3----3----3----3----3----|

E|-7----7----7----7----7----7----7----7----|-0----0----0----0----0----0----0----0----|
B|-8----8----8----8----8----8----8----8----|-2----2----2----2----2----2----2----2----|
G|-9----9----9----9----9----9----9----9----|-2----2----2----2----2----2----2----2----|
D|-9----9----9----9----9----9----9----9----|-2----2----2----2----2----2----2----2----|
A|-7----7----7----7----7----7----7----7----|-0----0----0----0----0----0----0----0----|
E|-----------------------------------------|-----------------------------------------|

E|-3----3----3----3----3----3----3----3----|-3----3----3----3----3----3----3----3----|
B|-3----3----3----3----3----3----3----3----|-0----0----0----0----0----0----0----0----|
G|-0----0----0----0----0----0----0----0----|-0----0----0----0----0----0----0----0----|
D|-0----0----0----0----0----0----0----0----|-0----0----0----0----0----0----0----0----|
A|-0----0----0----0----0----0----0----0----|-2----2----2----2----2----2----2----2----|
E|-3----3----3----3----3----3----3----3----|-3----3----3----3----3----3----3----3----|

E|-3----3----3----3----3----3----3----3----|-0----0----0----0----0----0----0----0----|
B|-0----0----0----0----0----0----0----0----|-1----1----1----1----1----1----1----1----|
G|-0----0----0----0----0----0----0----0----|-0----0----0----0----0----0----0----0----|
D|-0----0----0----0----0----0----0----0----|-2----2----2----2----2----2----2----2----|
A|-2----2----2----2----2----2----2----2----|-3----3----3----3----3----3----3----3----|
E|-3----3----3----3----3----3----3----3----|-0----0----0----0----0----0----0----0----|

E|-3----3----3----3----3----3----3----3----|-0----0----0----0----0----0----0----0----|
B|-0----0----0----0----0----0----0----0----|-1----1----1----1----1----1----1----1----|
G|-0----0----0----0----0----0----0----0----|-0----0----0----0----0----0----0----0----|
D|-0----0----0----0----0----0----0----0----|-2----2----2----2----2----2----2----2----|
A|-2----2----2----2----2----2----2----2----|-3----3----3----3----3----3----3----3----|
E|-3----3----3----3----3----3----3----3----|-0----0----0----0----0----0----0----0----|

E|-3----3----3----3----3----3----3----3----|-7----7----7----7----7----7----7----7----|
B|-0----0----0----0----0----0----0----0----|-8----8----8----8----8----8----8----8----|
G|-0----0----0----0----0----0----0----0----|-9----9----9----9----9----9----9----9----|
D|-0----0----0----0----0----0----0----0----|-9----9----9----9----9----9----9----9----|
A|-2----2----2----2----2----2----2----2----|-7----7----7----7----7----7----7----7----|
E|-3----3----3----3----3----3----3----3----|-----------------------------------------|

E|-0----0----0----0----0----0----0----0----|-3----3----3----3----3----3----3----3----|
B|-2----2----2----2----2----2----2----2----|-3----3----3----3----3----3----3----3----|
G|-2----2----2----2----2----2----2----2----|-0----0----0----0----0----0----0----0----|
D|-2----2----2----2----2----2----2----2----|-0----0----0----0----0----0----0----0----|
A|-0----0----0----0----0----0----0----0----|-0----0----0----0----0----0----0----0----|
E|-----------------------------------------|-3----3----3----3----3----3----3----3----|

E|-3----3----3----3----3----3----3----3----|-0----0----0----0----0----0----0----0----|
B|-0----0----0----0----0----0----0----0----|-1----1----1----1----1----1----1----1----|
G|-0----0----0----0----0----0----0----0----|-0----0----0----0----0----0----0----0----|
D|-0----0----0----0----0----0----0----0----|-2----2----2----2----2----2----2----2----|
A|-2----2----2----2----2----2----2----2----|-3----3----3----3----3----3----3----3----|
E|-3----3----3----3----3----3----3----3----|-0----0----0----0----0----0----0----0----|

E|-3----3----3----3----3----3----3----3----|-0----0----0----0----0----0----0----0----|
B|-0----0----0----0----0----0----0----0----|-1----1----1----1----1----1----1----1----|
G|-0----0----0----0----0----0----0----0----|-0----0----0----0----0----0----0----0----|
D|-0----0----0----0----0----0----0----0----|-2----2----2----2----2----2----2----2----|
A|-2----2----2----2----2----2----2----2----|-3----3----3----3----3----3----3----3----|
E|-3----3----3----3----3----3----3----3----|-0----0----0----0----0----0----0----0----|

E|-3----3----3----3----3----3----3----3----|-7----7----7----7----7----7----7----7----|
B|-0----0----0----0----0----0----0----0----|-8----8----8----8----8----8----8----8----|
G|-0----0----0----0----0----0----0----0----|-9----9----9----9----9----9----9----9----|
D|-0----0----0----0----0----0----0----0----|-9----9----9----9----9----9----9----9----|
A|-2----2----2----2----2----2----2----2----|-7----7----7----7----7----7----7----7----|
E|-3----3----3----3----3----3----3----3----|-----------------------------------------|

E|-0----0----0----0----0----0----0----0----|-3----3----3----3----3----3----3----3----|
B|-2----2----2----2----2----2----2----2----|-0----0----0----0----0----0----0----0----|
G|-2----2----2----2----2----2----2----2----|-0----0----0----0----0----0----0----0----|
D|-2----2----2----2----2----2----2----2----|-0----0----0----0----0----0----0----0----|
A|-0----0----0----0----0----0----0----0----|-2----2----2----2----2----2----2----2----|
E|-----------------------------------------|-3----3----3----3----3----3----3----3----|

E|-3----3----3----3----3----3----3----3----|-3----3----3----3----3----3----3----3----|
B|-0----0----0----0----0----0----0----0----|-0----0----0----0----0----0----0----0----|
G|-0----0----0----0----0----0----0----0----|-0----0----0----0----0----0----0----0----|
D|-0----0----0----0----0----0----0----0----|-0----0----0----0----0----0----0----0----|
A|-2----2----2----2----2----2----2----2----|-2----2----2----2----2----2----2----2----|
E|-3----3----3----3----3----3----3----3----|-3----3----3----3----3----3----3----3----|

E|-0----0----0----0----0----0----0----0----|-3----3----3----3----3----3----3----3----|
B|-1----1----1----1----1----1----1----1----|-0----0----0----0----0----0----0----0----|
G|-0----0----0----0----0----0----0----0----|-0----0----0----0----0----0----0----0----|
D|-2----2----2----2----2----2----2----2----|-0----0----0----0----0----0----0----0----|
A|-3----3----3----3----3----3----3----3----|-2----2----2----2----2----2----2----2----|
E|-0----0----0----0----0----0----0----0----|-3----3----3----3----3----3----3----3----|

E|-0----0----0----0----0----0----0----0----|-3----3----3----3----3----3----3----3----|
B|-1----1----1----1----1----1----1----1----|-0----0----0----0----0----0----0----0----|
G|-0----0----0----0----0----0----0----0----|-0----0----0----0----0----0----0----0----|
D|-2----2----2----2----2----2----2----2----|-0----0----0----0----0----0----0----0----|
A|-3----3----3----3----3----3----3----3----|-2----2----2----2----2----2----2----2----|
E|-0----0----0----0----0----0----0----0----|-3----3----3----3----3----3----3----3----|

E|-7----7----7----7----7----7----7----7----|-0----0----0----0----0----0----0----0----|
B|-8----8----8----8----8----8----8----8----|-2----2----2----2----2----2----2----2----|
G|-9----9----9----9----9----9----9----9----|-2----2----2----2----2----2----2----2----|
D|-9----9----9----9----9----9----9----9----|-2----2----2----2----2----2----2----2----|
A|-7----7----7----7----7----7----7----7----|-0----0----0----0----0----0----0----0----|
E|-----------------------------------------|-----------------------------------------|

E|-3----3----3----3----3----3----3----3----|-3----3----3----3----3----3----3----3----|
B|-0----0----0----0----0----0----0----0----|-0----0----0----0----0----0----0----0----|
G|-0----0----0----0----0----0----0----0----|-0----0----0----0----0----0----0----0----|
D|-0----0----0----0----0----0----0----0----|-0----0----0----0----0----0----0----0----|
A|-2----2----2----2----2----2----2----2----|-2----2----2----2----2----2----2----2----|
E|-3----3----3----3----3----3----3----3----|-3----3----3----3----3----3----3----3----|

E|-0----0----0----0----0----0----0----0----|-3----3----3----3----3----3----3----3----|
B|-1----1----1----1----1----1----1----1----|-0----0----0----0----0----0----0----0----|
G|-0----0----0----0----0----0----0----0----|-0----0----0----0----0----0----0----0----|
D|-2----2----2----2----2----2----2----2----|-0----0----0----0----0----0----0----0----|
A|-3----3----3----3----3----3----3----3----|-2----2----2----2----2----2----2----2----|
E|-0----0----0----0----0----0----0----0----|-3----3----3----3----3----3----3----3----|
Pink Floyd - Lost For Words
Pink Floyd - Lost For Words.gp3