Pink Floyd - Lost for Words (2)

Pink Floyd



Title: Lost for Words
Album: The Division Bell
Artist: Pink Floyd
Author: 

Track 1: Guitar 1
E|---------|---------|---------|---------|---------|---------|---------|---------|--------------------------------|
B|---------|---------|---------|---------|---------|---------|---------|---------|--------------------------------|
G|-%-------|-%-------|-%-------|-%-------|-%-------|-%-------|-%-------|-%-------|-----------------0-----0----0---|
D|-%-------|-%-------|-%-------|-%-------|-%-------|-%-------|-%-------|-%-------|-----------------0-----0----0---|
A|---------|---------|---------|---------|---------|---------|---------|---------|-------0---2--------------------|
E|---------|---------|---------|---------|---------|---------|---------|---------|-3------------------------------|

E|-------------------------------------------|------------------------------------|
B|-1---------1---1----1---1----1-------------|------------------------------------|
G|-0---------0---0----0---0----0---0----0----|-0--------------0----0----0-----0---|
D|-0---2-----2---2-------------0---0----0----|-0--------0-----0----0--------------|
A|-------------------------------------------|-0---2----------2-------------------|
E|-------------------------------------------|------------------------------------|

E|--------------------------------|-------------------------------------------|------------------------------------|
B|--------------------------------|-1---------1---1----1---1----1-------------|------------------------------------|
G|-----------------0-----0----0---|-0---------0---0----0---0----0---0----0----|-0--------------0----0----0-----0---|
D|-----------------0-----0----0---|-0---2-----2---2-------------0---0----0----|-0--------0-----0----0--------------|
A|-------0---2--------------------|-------------------------------------------|-0---2----------2-------------------|
E|-3------------------------------|-------------------------------------------|------------------------------------|

E|--------------------------------|----------------------------------------------|------------0----------0-----|
B|--------------------------------|-1---------------------------1----------------|------------0----0-----0-----|
G|-----------------0-----0----0---|-0---------0---0----0---0----0---0----0---0---|-0----------0----0-----0-----|
D|-----------------0-----0----0---|-0---2-----2---2----2---2--------0----0---0---|-2-----2----2----2-----2-----|
A|-------0---2--------------------|--------------------------------------3-------|-2-----2---------2-----2-----|
E|-3------------------------------|----------------------------------------------|-------0---------------------|

E|------2------------------2----2----2----2---|---------|---------|---------|---------|
B|------3------------------3----3----3----3---|---------|---------|---------|---------|
G|-3----2------------------2----2----2----2---|-%-------|-%-------|-%-------|-%-------|
D|-0----0------------------0------------------|-%-------|-%-------|-%-------|-%-------|
A|-0----0----0---2----0-----------------------|---------|---------|---------|---------|
E|--------------------------------------------|---------|---------|---------|---------|

E|---------|---------|---------|---------|---------|---------|--------------------------------|
B|---------|---------|---------|---------|---------|---------|--------------------------------|
G|-%-------|-%-------|-%-------|-%-------|-%-------|-%-------|-----------------0-----0----0---|
D|-%-------|-%-------|-%-------|-%-------|-%-------|-%-------|-----------------0-----0----0---|
A|---------|---------|---------|---------|---------|---------|-------0---2--------------------|
E|---------|---------|---------|---------|---------|---------|-3------------------------------|

E|-------------------------------------------|------------------------------------|
B|-1---------1---1----1---1----1-------------|------------------------------------|
G|-0---------0---0----0---0----0---0----0----|-0--------------0----0----0-----0---|
D|-0---2-----2---2-------------0---0----0----|-0--------0-----0----0--------------|
A|-------------------------------------------|-0---2----------2-------------------|
E|-------------------------------------------|------------------------------------|

E|--------------------------------|-------------------------------------------|------------------------------------|
B|--------------------------------|-1---------1---1----1---1----1-------------|------------------------------------|
G|-----------------0-----0----0---|-0---------0---0----0---0----0---0----0----|-0--------------0----0----0-----0---|
D|-----------------0-----0----0---|-0---2-----2---2-------------0---0----0----|-0--------0-----0----0--------------|
A|-------0---2--------------------|-------------------------------------------|-0---2----------2-------------------|
E|-3------------------------------|-------------------------------------------|------------------------------------|

E|--------------------------------|----------------------------------------------|--------------------------------|
B|--------------------------------|-1---------------------------1----------------|--------------------------------|
G|-----------------0-----0----0---|-0---------0---0----0---0----0---0----0---0---|-----------------0-----0----0---|
D|-----------------0-----0----0---|-0---2-----2---2----2---2--------0----0---0---|-----------------0-----0----0---|
A|-------0---2--------------------|--------------------------------------3-------|-------0---2--------------------|
E|-3------------------------------|----------------------------------------------|-3------------------------------|

E|-------------------------------------------|------------------------------------|
B|-1---------1---1----1---1----1-------------|------------------------------------|
G|-0---------0---0----0---0----0---0----0----|-0--------------0----0----0-----0---|
D|-0---2-----2---2-------------0---0----0----|-0--------0-----0----0--------------|
A|-------------------------------------------|-0---2----------2-------------------|
E|-------------------------------------------|------------------------------------|

E|--------------------------------|----------------------------------------------|-1----1----1---------1----1----1----1----|
B|--------------------------------|-1---------------------------1----------------|-1----1----1----1----1----1----1----1----|
G|-----------------0-----0----0---|-0---------0---0----0---0----0---0----0---0---|-0----0----0----0----2----2----2----2----|
D|-----------------0-----0----0---|-0---2-----2---2----2---2--------0----0---0---|-3----3----3----3----2----2----2----2----|
A|-------0---2--------------------|--------------------------------------3-------|-3----3---------3----0----0---------0----|
E|-3------------------------------|----------------------------------------------|-1----1--------------1----1--------------|

E|---------|---------|---------|---------|---------|---------|---------|---------|---------|
B|---------|---------|---------|---------|---------|---------|---------|---------|---------|
G|-%-------|-%-------|-%-------|-%-------|-%-------|-%-------|-%-------|-%-------|-%-------|
D|-%-------|-%-------|-%-------|-%-------|-%-------|-%-------|-%-------|-%-------|-%-------|
A|---------|---------|---------|---------|---------|---------|---------|---------|---------|
E|---------|---------|---------|---------|---------|---------|---------|---------|---------|

E|---------|---------|---------|---------|---------|---------|---------|---------|---------|
B|---------|---------|---------|---------|---------|---------|---------|---------|---------|
G|-%-------|-%-------|-%-------|-%-------|-%-------|-%-------|-%-------|-%-------|-%-------|
D|-%-------|-%-------|-%-------|-%-------|-%-------|-%-------|-%-------|-%-------|-%-------|
A|---------|---------|---------|---------|---------|---------|---------|---------|---------|
E|---------|---------|---------|---------|---------|---------|---------|---------|---------|

E|---------|---------|---------|---------|---------|---------|---------|---------|---------|
B|---------|---------|---------|---------|---------|---------|---------|---------|---------|
G|-%-------|-%-------|-%-------|-%-------|-%-------|-%-------|-%-------|-%-------|-%-------|
D|-%-------|-%-------|-%-------|-%-------|-%-------|-%-------|-%-------|-%-------|-%-------|
A|---------|---------|---------|---------|---------|---------|---------|---------|---------|
E|---------|---------|---------|---------|---------|---------|---------|---------|---------|

E|---------|---------|---------|---------|---------|---------|---------|---------|---------|
B|---------|---------|---------|---------|---------|---------|---------|---------|---------|
G|-%-------|-%-------|-%-------|-%-------|-%-------|-%-------|-%-------|-%-------|-%-------|
D|-%-------|-%-------|-%-------|-%-------|-%-------|-%-------|-%-------|-%-------|-%-------|
A|---------|---------|---------|---------|---------|---------|---------|---------|---------|
E|---------|---------|---------|---------|---------|---------|---------|---------|---------|

E|---------|---------|---------|---------|---------|---------|---------|
B|---------|---------|---------|---------|---------|---------|---------|
G|-%-------|-%-------|-%-------|-%-------|-%-------|-%-------|-%-------|
D|-%-------|-%-------|-%-------|-%-------|-%-------|-%-------|-%-------|
A|---------|---------|---------|---------|---------|---------|---------|
E|---------|---------|---------|---------|---------|---------|---------|
Pink Floyd - Lost for Words (2)
Pink Floyd - Lost for Words (2).gp3