Pink Floyd - Marooned

Pink Floyd



Title: Marooned
Album: The Division Bell
Artist: Pink Floyd
Author: 

Track 1: Guitar
E|---------|-17------|-17-----17-----14---|---------|---------------------------|---------------------------|
B|---------|---------|--------------------|-17------|-17--------------------15--|-17-----17--17--15--17-----|
G|-%-------|---------|--------------------|---------|--------%-----%----16------|---------------------------|
D|-%-------|---------|--------------------|---------|--------%-----%------------|---------------------------|
A|---------|---------|--------------------|---------|---------------------------|---------------------------|
E|---------|---------|--------------------|---------|---------------------------|---------------------------|

E|-----------------------------|---------|------------X---24--24-----|-24------|-12--------------17----17--19--22--19--|
B|-17----------------17-15-14--|-14------|-14----14------------------|---------|---------------------------------------|
G|--------%-----%--------------|---------|---------------------------|---------|-------%-----%-------------------------|
D|--------%-----%--------------|---------|---------------------------|---------|-------%-----%-------------------------|
A|-----------------------------|---------|---------------------------|---------|---------------------------------------|
E|-----------------------------|---------|---------------------------|---------|---------------------------------------|

E|-22-----22----22--26--22----|-22----22----22------------21----|-21----21---21---21---21------------|
B|----------------------------|----------------------19---------|----------------------------22--19--|
G|----------------------------|-----------------%---------------|------------------------------------|
D|----------------------------|-----------------%---------------|------------------------------------|
A|----------------------------|---------------------------------|------------------------------------|
E|----------------------------|---------------------------------|------------------------------------|

E|------------------------------------------|-------------------17-------------|--------------------|
B|------------------17--5-------17--15------|-17----17----17----0----17---17---|-17-----7----5------|
G|-21-----21---%------------16----------16--|----------------------------------|--------------------|
D|-------------%----------------------------|----------------------------------|--------------------|
A|------------------------------------------|----------------------------------|--------------------|
E|------------------------------------------|----------------------------------|--------------------|

E|-------------------------------|---------------------------------|--------------------------------|
B|-5-----------------12--15--12--|-15-----15---15--------15--15-17-|---------19---19----19----------|
G|--------%-----%----------------|------------------%--------------|-19--19-------------------%-----|
D|--------%-----%----------------|------------------%--------------|--------------------------%-----|
A|-------------------------------|---------------------------------|--------------------------------|
E|-------------------------------|---------------------------------|--------------------------------|

E|-----------------------------------------------------17----19--|-19--19----19----19----19---19---19---|
B|-----17----17--17--15------17------15--17--17--17-15-----------|--------------------------------------|
G|-%---------------------16------16------------------------------|--------------------------------------|
D|-%-------------------------------------------------------------|--------------------------------------|
A|---------------------------------------------------------------|--------------------------------------|
E|---------------------------------------------------------------|--------------------------------------|

E|-19--19--21---21----21--21--19--21--21--21--19--21--|-21--21--21--19-----------------------|
B|----------------------------------------------------|-----------------24----24-----22--24--|
G|----------------------------------------------------|--------------------------------------|
D|----------------------------------------------------|--------------------------------------|
A|----------------------------------------------------|--------------------------------------|
E|----------------------------------------------------|--------------------------------------|

E|----------------------------------------|--------------------|-------------------17---|
B|-24---22----19---19---17--19------------|--------------------|------------------------|
G|------------------------------19--30----|-30-----28---23-----|-%------%-----%---------|
D|----------------------------------------|--------------------|-%------%-----%---------|
A|----------------------------------------|--------------------|------------------------|
E|----------------------------------------|--------------------|------------------------|

E|-19----------17---17--19----|-19--------17-----------------------------|----------------------------------------17--|
B|-19-------------------------|---------------17--17--19---------15------|-17----15-----------------------17--19------|
G|--------%-------------------|-------%---------------------%--------16--|----------16-%---%----%-----%---------------|
D|--------%-------------------|-------%---------------------%------------|-------------%---%----%-----%---------------|
A|----------------------------|------------------------------------------|--------------------------------------------|
E|----------------------------|------------------------------------------|--------------------------------------------|

E|-------19---21---22---21---22---24---22---24---25---|-26----26----26----26-----27--26--24--|
B|----------------------------------------------------|--------------------------------------|
G|-%--------------------------------------------------|--------------------------------------|
D|-%--------------------------------------------------|--------------------------------------|
A|----------------------------------------------------|--------------------------------------|
E|----------------------------------------------------|--------------------------------------|

E|-26-----24----29--26---29--29--|-29-----19----------|-------------14-----------------------------|
B|-------------------------------|--------------------|-------15---------15---15---12------15--15--|
G|-------------------------------|---------------%----|-%------------------------------14----------|
D|-------------------------------|---------------%----|-%------------------------------------------|
A|-------------------------------|--------------------|--------------------------------------------|
E|-------------------------------|--------------------|--------------------------------------------|

E|-------12------------------------|------------5-------10---7-----------7-----------|
B|-15--------15----15----10--------|-------5----5---5---10-------7---10------7---10--|
G|----------------------------%----|-%-----------------------------------------------|
D|----------------------------%----|-%-----------------------------------------------|
A|---------------------------------|-------------------------------------------------|
E|---------------------------------|-------------------------------------------------|

E|------------------------|-------------------------|-17-----17----17--------------|
B|-10---------------------|------2------3------3----|-17-----17----17--17--17--17--|
G|-9------9----9----%-----|-%----2------4------4----|------------------X-----------|
D|------------------%-----|-%----2------4------4----|------------------------------|
A|------------------------|-------------------------|------------------------------|
E|------------------------|-------------------------|------------------------------|

E|----------------------------------------------|----------------------------------|
B|-17--17--17---17----17------------------------|-17-----17----------------17------|
G|-------------------------16---18--16--19--18--|-------------16---18--18------18--|
D|----------------------------------------------|----------------------------------|
A|----------------------------------------------|----------------------------------|
E|----------------------------------------------|----------------------------------|

E|----------------------------------------------------|-----------------------------------------------------------|
B|-17----19--------17---19--------17---19--------17---|-19--19--19--17--19----12-------19---19---19---19--19--17--|
G|------------19-------------19-------------19--------|---------------------------%-------------------------------|
D|----------------------------------------------------|---------------------------%-------------------------------|
A|----------------------------------------------------|-----------------------------------------------------------|
E|----------------------------------------------------|-----------------------------------------------------------|

E|----------------------------------|----------------------------------------|-----------------------------------------------------------|
B|-19---19-----30----30---30---30---|-30------30---30---30---30--30----30----|-30--30--30--30--------------------------------------------|
G|----------------------------------|-----30---------------------------------|-----------------30--30--30--30--30--30--30--30--28---26---|
D|----------------------------------|----------------------------------------|-----------------------------------------------------------|
A|----------------------------------|----------------------------------------|-----------------------------------------------------------|
E|----------------------------------|----------------------------------------|-----------------------------------------------------------|

E|--------------------------------|--------19--22--19--22---22--24----22--|-22---22---22---22--22--22--22-22-22--22---22---21--22-21-19--21--|
B|-24-----24----24--26--24--22-24-|-24------------------------------------|------------------------------------------------------------------|
G|--------------------------------|---------------------------------------|------------------------------------------------------------------|
D|--------------------------------|---------------------------------------|------------------------------------------------------------------|
A|--------------------------------|---------------------------------------|------------------------------------------------------------------|
E|--------------------------------|---------------------------------------|------------------------------------------------------------------|

E|-21---21---21--21--19-----19---------------------------------|--------------------------------------------------------|
B|-----------------------22-----22-22---22-19----------22--22--|-22----22--22-19---------22--22---22-19-----22----22-20-|
G|--------------------------------------------21--%------------|-----------------21--%------------------21--------------|
D|------------------------------------------------%------------|---------------------%----------------------------------|
A|-------------------------------------------------------------|--------------------------------------------------------|
E|-------------------------------------------------------------|--------------------------------------------------------|

E|-------22----22--22--21--22--24--26----|-26----19-------------19---19---21---21---21--21--|
B|---------------------------------------|--------------------------------------------------|
G|-%-------------------------------------|------------%----%--------------------------------|
D|-%-------------------------------------|------------%----%--------------------------------|
A|---------------------------------------|--------------------------------------------------|
E|---------------------------------------|--------------------------------------------------|

E|-21--19----19---14--------------------------------------------------------------------------------|
B|--------------------------12-15-12-15-12-15-12-15-12-15-12-15-12-15-12-15-12-15-12-15-12-15-12-15-|
G|---------------------%----------------------------------------------------------------------------|
D|---------------------%----------------------------------------------------------------------------|
A|--------------------------------------------------------------------------------------------------|
E|--------------------------------------------------------------------------------------------------|

E|------------------------------------------|------------------------------------------|
B|-15----15--15----15---12---15---15----17--|------------15--12--15----15--12--15--15--|
G|------------------------------------------|-%-----%----------------------------------|
D|------------------------------------------|-%-----%----------------------------------|
A|------------------------------------------|------------------------------------------|
E|------------------------------------------|------------------------------------------|

E|-------------------------------------------------------|----------------------X----------------7---|
B|-15----15---15------14--12--15--15-14-12------12-------|-12----12--------------------------7-------|
G|----------------%-------------------------14------14---|------------%----%---------9---9-----------|
D|----------------%--------------------------------------|------------%----%-------------------------|
A|-------------------------------------------------------|-------------------------------------------|
E|-------------------------------------------------------|-------------------------------------------|

E|-------------------------------------------|-------------------------------------------------------------0--------------|
B|-10--7---10---10----22--22----22-------10--|-22--19----------17--22-19-17--17----------20--17--20-17-19------17---20-17-|
G|-----------------------------------10------|---------21----------------------------%------------------------------------|
D|-------------------------------------------|-------------19--------------------19--%------------------------------------|
A|-------------------------------------------|----------------------------------------------------------------------------|
E|-------------------------------------------|----------------------------------------------------------------------------|

E|---------------------------------------------------------------|------------22--19------24--22----------------|
B|-----17--20--17------19--22-19-21-18-20--17---17--19--22--22---|-22------------------------------24---27--29--|
G|---------------------------------------------------------------|-------%------------%-------------------------|
D|-17------------------------------------------------------------|-------%------------%-------------------------|
A|-----------------20--------------------------------------------|----------------------------------------------|
E|---------------------------------------------------------------|----------------------------------------------|

E|-------------------------------|-----------------------------------|--------------------------------------------------------------|
B|-27-----26--26--26-----24--24--|-24---------19--22--22-----19--19--|-19---22---22---19--22------19--19----------------------------|
G|-------------------------------|-------%---------------------------|------------------------21-----------19---18------------------|
D|-------------------------------|-------%---------------------------|-----------------------------------------------21---19--------|
A|-------------------------------|-----------------------------------|---------------------------------------------------------21---|
E|-------------------------------|-----------------------------------|--------------------------------------------------------------|

E|-----------------17------------------17--|-19-----19--19--21----21---19---21---|-22--21--22---22----22-----22--24--|
B|----------------------17----17--17-------|-------------------------------------|-----------------------------------|
G|-------%---------------------------------|-------------------------------------|-----------------------------------|
D|-19----%----X----------------------------|-------------------------------------|-----------------------------------|
A|-----------------------------------------|-------------------------------------|-----------------------------------|
E|-----------------------------------------|-------------------------------------|-----------------------------------|

E|-24-----24---24--------24---|-26--24--24---24----24---22---22--21----------|-------------------------------|
B|----------------------------|--------------------------------------22------|-24-----22---------22--20--19--|
G|------------------%---------|------------------------------------------23--|--------------%----------------|
D|------------------%---------|----------------------------------------------|--------------%----------------|
A|----------------------------|----------------------------------------------|-------------------------------|
E|----------------------------|----------------------------------------------|-------------------------------|

E|---------------------------------|-----------------------------|-----------------------------------------------------|
B|---------------------------------|-----------------------------|-------------------------------------15------17------|
G|---------------------------------|-----------------------------|--------------------14---16--14----------------------|
D|-14-----14--------12---14-14-12--|-14------14--14--14-12----12-|-14----14--14--16----------------16------16------16--|
A|-------------12------------------|-----------------------14----|-----------------------------------------------------|
E|---------------------------------|-----------------------------|-----------------------------------------------------|

E|-------------------------------|----------------------------------------|------------------------------------|
B|-17-----17--19--19-----19--22--|-22----30--30----30---30---30---30--30--|-29-----29---29---27---26--26---26--|
G|-------------------------------|----------------------------------------|------------------------------------|
D|-------------------------------|----------------------------------------|------------------------------------|
A|-------------------------------|----------------------------------------|------------------------------------|
E|-------------------------------|----------------------------------------|------------------------------------|

E|-----------------------------------------------|-------------------|------------9---9---9----9---9---10---12---|
B|------------------------------15---17--17--15--|-------------------|------------0------------------------------|
G|-26--26----26----%----14--16-------------------|--------------%----|-%-----%----0------------------------------|
D|-----------------%-----------------------------|--------------%----|-%-----%-----------------------------------|
A|-----------------------------------------------|-14------14--------|-------------------------------------------|
E|-----------------------------------------------|-------------------|-------------------------------------------|

E|-12-----12---10---9---10------9---|-------------------------14----------|-14-------------26--26----------29--29----------|
B|--------------------------12------|-10----------------------------------|------------------------------------------------|
G|----------------------------------|--------%----14--16--16------16--16--|--------26--28----------28--28----------28--28--|
D|----------------------------------|--------%----------------------------|------------------------------------------------|
A|----------------------------------|-------------------------------------|------------------------------------------------|
E|----------------------------------|-------------------------------------|------------------------------------------------|

E|-26--26---------------------------------------30--30----------|-26-----26---24---26-------------|
B|-----------------19--19----------19---------------------------|-----------------------24--------|
G|-----------------------------------------26-----------28--28--|----------------------------26---|
D|---------21--21----------21--21------21-----------------------|---------------------------------|
A|--------------------------------------------------------------|---------------------------------|
E|--------------------------------------------------------------|---------------------------------|

E|---------|
B|-24------|
G|---------|
D|---------|
A|---------|
E|---------|
Pink Floyd - Marooned
Pink Floyd - Marooned.gp3