Pink Floyd - Matilda Mother

Pink Floyd



Title: Matilda Mother
Album: The Piper at the Gates of Dawn
Artist: Pink Floyd
Author: Syd Barrett

Track 1: Guitar
E|---------|---------|---------|---------|---------|------0----0----0----0----0----0---------|
B|---------|---------|---------|---------|---------|-0---------0----0--------------0----0----|
G|-%-------|-%-------|-%-------|-%-------|-%-------|---------------------2----2---------2----|
D|-%-------|-%-------|-%-------|-%-------|-%-------|-----------------------------------------|
A|---------|---------|---------|---------|---------|-----------------------------------------|
E|---------|---------|---------|---------|---------|-----------------------------------------|

E|------0----0----0----0----0----0----0----|-0----0----0----0----0----0----0---------|
B|-0----0----0----0----0----0----0---------|-0---------0----0--------------0----0----|
G|-0----0---------0------------------------|---------------------2----2---------2----|
D|---------------------4----4---------4----|-----------------------------------------|
A|-----------------------------------------|-----------------------------------------|
E|-----------------------------------------|-----------------------------------------|

E|------0----0----0----0----0----0----0----|-0----0----0----0----0----0----0---------|
B|-0----0----0----0----0----0----0---------|-0---------0----0--------------0----0----|
G|-0----0---------0------------------------|---------------------2----2---------2----|
D|---------------------4----4---------4----|-----------------------------------------|
A|-----------------------------------------|-----------------------------------------|
E|-----------------------------------------|-----------------------------------------|

E|------0----0----0----0----0----0----0----|-0----0----0----0----0----0----0---------|
B|-0----0----0----0----0----0----0---------|-0---------0----0--------------0----0----|
G|-0----0---------0------------------------|---------------------2----2---------2----|
D|---------------------4----4---------4----|-----------------------------------------|
A|-----------------------------------------|-----------------------------------------|
E|-----------------------------------------|-----------------------------------------|

E|------0----0----0----0----0----0---------|--------------------------5----5---------|
B|-0----0----0----0----0----0----0---------|------3----3-------------------7---------|
G|-0----0---------0------------------------|-----------4---------7----7---------7----|
D|---------------------4----4---------4----|-5----5---------5----7----7----7---------|
A|-----------------------------------------|---------------------5----5----5---------|
E|-----------------------------------------|-3----3----3-----------------------------|

E|------0----0----0----0----0-----0----|--------------------------5----5---------|-0----0----0----0----0----0----0---------|
B|-----------2----2----2----2-----3----|------3----3-------------------7---------|-0----0----0---------0---------0---------|
G|----------------2----2---------------|-----------4---------7----7---------7----|-1----1----1----1----1----1----1----1----|
D|-2----2---------2----2---------------|-5----5---------5----7----7----7---------|-2----2----2----2----2----2----2----2----|
A|-------------------------------------|---------------------5----5----5---------|-2----------------------------------2----|
E|-------------------------------------|-3----3----3-----------------------------|-0----------------------------------0----|

E|-0---------0----0---------0---------0----|-----------------------------------------|
B|------0---------0----0---------0---------|-----------------------------------------|
G|-1----1----1----1----1----1----1----1----|-----------------------------------------|
D|-2----2----2----2----2----2----2----2----|-----------------------------------------|
A|-2---------------------------------------|-----------0----2----0-------------------|
E|-0---------------------------------------|-2----4-------------------4----2----0----|

E|-----------------------------------------|--------------------------2---------|-2----2----2-----2-----7---------|
B|-----------------------------------------|-------------------------------4----|------4----4-----4-----7---------|
G|-----------------------------------------|------%-----------------------------|-----------4-----4-----8----%----|
D|-----------------------------------------|-4----%-------4------4----4----4----|-4----4----4-----4----------%----|
A|-----------0----2----0-------------------|-2---------2--2------2----2----2----|-2----2----2-----2---------------|
E|-2----4-------------------4----2----0----|------------------------------------|---------------------------------|

E|-----------------------------------------|-------------------------------------|----------------------------|
B|-----------------------------------------|-------------------------------------|-----------0------0----0----|
G|-----------------------------------------|-------------------------------------|-1----%----1------1----0----|
D|-----------------------------------------|------4---------3---------2-----0----|-2----%----2------2----0----|
A|-----------0----2----0-------------------|-------------------------------------|-2---------2------2----2----|
E|-2----4-------------------4----2----0----|-2---------2---------2---------------|-0---------0------0----3----|

E|---------|------0----0----0----0----0----0---------|------0----0----0----0----0----0----0----|
B|-0-------|-0---------0----0--------------0----0----|-0----0----0----0----0----0----0---------|
G|-0-------|---------------------2----2---------2----|-0----0---------0------------------------|
D|-0-------|-----------------------------------------|---------------------4----4---------4----|
A|-2-------|-----------------------------------------|-----------------------------------------|
E|-3-------|-----------------------------------------|-----------------------------------------|

E|-0----0----0----0----0----0----0---------|------0----0----0----0----0----0----0----|
B|-0---------0----0--------------0----0----|-0----0----0----0----0----0----0---------|
G|---------------------2----2---------2----|-0----0---------0------------------------|
D|-----------------------------------------|---------------------4----4---------4----|
A|-----------------------------------------|-----------------------------------------|
E|-----------------------------------------|-----------------------------------------|

E|-0----0----0----0----0----0----0---------|------0----0----0----0----0----0----0----|
B|-0---------0----0--------------0----0----|-0----0----0----0----0----0----0---------|
G|---------------------2----2---------2----|-0----0---------0------------------------|
D|-----------------------------------------|---------------------4----4---------4----|
A|-----------------------------------------|-----------------------------------------|
E|-----------------------------------------|-----------------------------------------|

E|------0----0----0----0----0----0---------|------0----0----0----0----0----0---------|
B|-0---------0----0--------------0----0----|-0----0----0----0----0----0----0---------|
G|---------------------2----2---------2----|-0--------------0------------------------|
D|-----------------------------------------|---------------------4----4---------4----|
A|-----------------------------------------|-----------------------------------------|
E|-----------------------------------------|-----------------------------------------|

E|--------------------------5----5---------|------0----0----0----0----0-----0----|--------------------------5----5---------|
B|------3----3-------------------7---------|-----------2----2----2----2-----3----|------3----3-------------------7---------|
G|-----------4---------7----7---------7----|----------------2----2---------------|-----------4---------7----7---------7----|
D|-5----5---------5----7----7----7---------|-2----2---------2----2---------------|-5----5---------5----7----7----7---------|
A|---------------------5----5----5---------|-------------------------------------|---------------------5----5----5---------|
E|-3----3----3-----------------------------|-------------------------------------|-3----3----3-----------------------------|

E|-0----0----0----0----0----0----0---------|-0---------0--------------0---------0----|
B|-0----0----0---------0---------0---------|------0---------0----0---------0---------|
G|-1----1----1----1----1----1----1----1----|-1----1----1----1----1----1----1----1----|
D|-2----2----2----2----2----2----2----2----|------0----0----0----0----0----0----0----|
A|-2----------------------------------2----|-2---------------------------------------|
E|-0----------------------------------0----|-0---------------------------------------|

E|---------------|---------|---------------|----------------------------------|----------------------------------|
B|-2------0------|-0-------|-0-------------|----------------------------------|----------------------------------|
G|-2------0------|-1-------|-1------%------|---------------%------------------|---------------%------------------|
D|-2------0------|-2-------|-2------%------|-------4----4--%---4--------------|-------4----4--%---4--------------|
A|-0------2------|-2-------|-2-------------|---------------------------4------|---------------------------4------|
E|--------3------|-0-------|-0-------------|-2--------------------2-----------|-2--------------------2-----------|

E|----------------------------------|----------------------------------|----------------------------------|
B|----------------------------------|----------------------------------|----------------------------------|
G|---------------%------------------|---------------%------------------|---------------%------------------|
D|-------4----4--%---4--------------|-------4----4--%---4--------------|-------4----4--%---4--------------|
A|---------------------------4------|---------------------------4------|---------------------------4------|
E|-2--------------------2-----------|-2--------------------2-----------|-2--------------------2-----------|

E|----------------------------------|----------------------------------|----------------------------------|
B|----------------------------------|----------------------------------|----------------------------------|
G|---------------%------------------|---------------%------------------|---------------%------------------|
D|-------4----4--%---4--------------|-------4----4--%---4--------------|-------4----4--%---4--------------|
A|---------------------------4------|---------------------------4------|---------------------------4------|
E|-2--------------------2-----------|-2--------------------2-----------|-2--------------------2-----------|

E|----------------------------------|----------------------------------|----------------------------------|
B|----------------------------------|----------------------------------|----------------------------------|
G|---------------%------------------|---------------%------------------|---------------%------------------|
D|-------4----4--%---4--------------|-------4----4--%---4--------------|-------4----4--%---4--------------|
A|---------------------------4------|---------------------------4------|---------------------------4------|
E|-2--------------------2-----------|-2--------------------2-----------|-2--------------------2-----------|

E|----------------------------------|-----------------------------------------|-----------------------------------------|
B|----------------------------------|-----------------------------------------|-----------------------------------------|
G|---------------%------------------|-----------------------------------------|-----------------------------------------|
D|-------4----4--%---4--------------|-----------------------------------------|-----------------------------------------|
A|---------------------------4------|-----------0----2----0-------------------|-----------0----2----0-------------------|
E|-2--------------------2-----------|-2----4-------------------4----2----0----|-2----4-------------------4----2----0----|

E|-------0----0-----0-----0---------0----------|-------0----0-----0-----0-------0----------|
B|-------0----0-----0-----0---------0----------|-------0----0-----0-----0-------0----------|
G|---------------%-----%-----%------2-----0----|-------0----0--%--0--%--0--%---------------|
D|-4-----4----4--%--4--%--4--%---2--------0----|-5-------------%-----%-----%----4-----4----|
A|-2--------------------------------0----------|-5------------------------------4-----4----|
E|---------------------------------------------|-3------------------------------2-----2----|

E|-------0----0-----0-----0---------0----------|-------0----0-----0-----0-------0----------|
B|----------------------------------0----------|-------0----0-----0-----0-------0----------|
G|-------4----4--%--4--%--4--%------2-----0----|-------0----0--%--0--%--0--%---------------|
D|-4-----4----4--%--4--%--4--%---2--------0----|-5-------------%-----%-----%----4-----4----|
A|-2--------------------------------0----------|-5------------------------------4-----4----|
E|---------------------------------------------|-3------------------------------2-----2----|

E|-------0----0-----0-----0---------0----------|-------0----0-----0-----0-------0----------|
B|----------------------------------0----------|-------0----0-----0-----0-------0----------|
G|-------4----4--%--4--%--4--%------2-----0----|-------0----0--%--0--%--0--%---------------|
D|-4-----4----4--%--4--%--4--%---2--------0----|-5-------------%-----%-----%----4-----4----|
A|-2--------------------------------0----------|-5------------------------------4-----4----|
E|---------------------------------------------|-3------------------------------2-----2----|

E|-------0----0-----0-----0---------0----------|-------0----0-----0-----0-------0----------|
B|----------------------------------0----------|-------0----0-----0-----0-------0----------|
G|-------4----4--%--4--%--4--%------2-----0----|-------0----0--%--0--%--0--%---------------|
D|-4-----4----4--%--4--%--4--%---2--------0----|-5-------------%-----%-----%----4-----4----|
A|-2--------------------------------0----------|-5------------------------------4-----4----|
E|---------------------------------------------|-3------------------------------2-----2----|

E|--------------------------5----5---------|------0----0----0----0----0-----0----|--------------------------5----5---------|
B|------3----3-------------------7---------|-----------2----2----2----2-----3----|------3----3-------------------7---------|
G|-----------4---------7----7---------7----|----------------2----2---------------|-----------4---------7----7---------7----|
D|-5----5---------5----7----7----7---------|-2----2---------2----2---------------|-5----5---------5----7----7----7---------|
A|---------------------5----5----5---------|-------------------------------------|---------------------5----5----5---------|
E|-3----3----3-----------------------------|-------------------------------------|-3----3----3-----------------------------|

E|-0----0----0----0----0----0----0---------|-0---------0--------------0---------0----|
B|-0----0----0---------0---------0---------|------0---------0----0---------0---------|
G|-1----1----1----1----1----1----1----1----|-1----1----1----1----1----1----1----1----|
D|-2----2----2----2----2----2----2----2----|------0----0----0----0----0----0----0----|
A|-2----------------------------------2----|-2---------------------------------------|
E|-0----------------------------------0----|-0---------------------------------------|

E|---------------|----------------------------------------|----------------------------------------|
B|-2------0------|----------------------------------------|----------------------------------------|
G|-2------0------|----------------------------------------|----------------------------------------|
D|-2------0------|-------2----2---------2-----0-----------|-------2----2---------2-----0-----------|
A|-0------2------|----------------------------------2-----|----------------------------------2-----|
E|--------3------|-0--------------0-----0-----0-----0-----|-0--------------0-----0-----0-----0-----|

E|----------------------------------------|----------------------------------------|
B|----------------------------------------|----------------------------------------|
G|----------------------------------------|----------------------------------------|
D|-------2----2---------2-----0-----------|-------2----2---------2-----0-----------|
A|----------------------------------2-----|----------------------------------2-----|
E|-0--------------0-----0-----0-----0-----|-0--------------0-----0-----0-----0-----|

E|----------------------------------------|----------------------------------------|
B|----------------------------------------|----------------------------------------|
G|----------------------------------------|----------------------------------------|
D|-------2----2---------2-----0-----------|-------2----2---------2-----0-----------|
A|----------------------------------2-----|----------------------------------2-----|
E|-0--------------0-----0-----0-----0-----|-0--------------0-----0-----0-----0-----|

E|----------------------------------------|----------------------------------------|
B|----------------------------------------|----------------------------------------|
G|----------------------------------------|----------------------------------------|
D|-------2----2---------2-----0-----------|-------2----2---------2-----0-----------|
A|----------------------------------2-----|----------------------------------2-----|
E|-0--------------0-----0-----0-----0-----|-0--------------0-----0-----0-----0-----|

E|----------------------------------------|----------------------------------------|
B|----------------------------------------|----------------------------------------|
G|----------------------------------------|----------------------------------------|
D|-------2----2---------2-----0-----------|-------2----2---------2-----0-----------|
A|----------------------------------2-----|----------------------------------2-----|
E|-0--------------0-----0-----0-----0-----|-0--------------0-----0-----0-----0-----|

E|----------------------------------------|----------------------------------------|
B|----------------------------------------|----------------------------------------|
G|----------------------------------------|----------------------------------------|
D|-------2----2---------2-----0-----------|-------2----2---------2-----0-----------|
A|----------------------------------2-----|----------------------------------2-----|
E|-0--------------0-----0-----0-----0-----|-0--------------0-----0-----0-----0-----|

E|----------------------------------------|----------------------------------------|
B|----------------------------------------|----------------------------------------|
G|----------------------------------------|----------------------------------------|
D|-------2----2---------2-----0-----------|-------2----2---------2-----0-----------|
A|----------------------------------2-----|----------------------------------2-----|
E|-0--------------0-----0-----0-----0-----|-0--------------0-----0-----0-----0-----|

E|----------------------------------------|----------------------------------------|
B|----------------------------------------|----------------------------------------|
G|----------------------------------------|----------------------------------------|
D|-------2----2---------2-----0-----------|-------2----2---------2-----0-----------|
A|----------------------------------2-----|----------------------------------2-----|
E|-0--------------0-----0-----0-----0-----|-0--------------0-----0-----0-----0-----|

E|---------------|
B|---------------|
G|---------%-----|
D|---------%-----|
A|---------------|
E|-0-------------|
Pink Floyd - Matilda Mother
Pink Floyd - Matilda Mother.gp3