Pink Floyd - Money

Pink Floyd



Title: Money
Album: 
Artist: 
Author: Pink Floyd

Track 1: Guitar 1
E|-------------------------------------------------------|-------------------------------------------------------|
B|-------------------------------------------------------|-------------------------------------------------------|
G|-------4--------------%---------------------%----------|-------4--------------%---------------------%----------|
D|------------4---------%---------------------%----------|------------4---------%---------------------%----------|
A|-2---------------2---------------------2---------5-----|-2---------------2---------------------2---------5-----|
E|---------------------------2-----5---------------------|---------------------------2-----5---------------------|

E|-------------------------------------------------------|-------------------------------------------------------|
B|-------------------------------------------------------|-------------------------------------------------------|
G|-------4------------------------------------%----------|-------4------------------------------------%----------|
D|------------4-------------------------------%----------|------------4-------------------------------%----------|
A|-2---------------2----X----------------2---------5-----|-2---------------2----X----------------2---------5-----|
E|---------------------------2-----5---------------------|---------------------------2-----5---------------------|

E|-------------------------------------------------------|-------------------------------------------------------|
B|-------------------------------------------------------|-------------------------------------------------------|
G|-------4------------------------------------%----------|-------4------------------------------------%----------|
D|------------4-------------------------------%----------|------------4-------------------------------%----------|
A|-2---------------2----X----------------2---------5-----|-2---------------2----X----------------2---------5-----|
E|---------------------------2-----5---------------------|---------------------------2-----5---------------------|

E|-------------------------------------------------------|-------------------------------------------------------|
B|-------------------------------------------------------|-------------------------------------------------------|
G|-------4------------------------------------%----------|-------4------------------------------------%----------|
D|------------4-------------------------------%----------|------------4-------------------------------%----------|
A|-2---------------2----X----------------2---------5-----|-2---------------2----X----------------2---------5-----|
E|---------------------------2-----5---------------------|---------------------------2-----5---------------------|

E|-------------------------------------------------------|-------------------------------------------------------|
B|-------------------------------------------------------|-------------------------------------------------------|
G|-------4------------------------------------%----------|-------4------------------------------------%----------|
D|------------4-------------------------------%----------|------------4-------------------------------%----------|
A|-2---------------2----X----------------2---------5-----|-2---------------2----X----------------2---------5-----|
E|---------------------------2-----5---------------------|---------------------------2-----5---------------------|

E|-------------------------------------------------------|-------------------------------------------------------|
B|-------------------------------------------------------|-------------------------------------------------------|
G|------%---------------%--------------------------------|-------4------------------------------------%----------|
D|------%---------------%--------------------------------|------------4-------------------------------%----------|
A|-2---------5-----2---------------------2----0----5-----|-2---------------2----X----------------2---------5-----|
E|---------------------------2-----5---------------------|---------------------------2-----5---------------------|

E|-------------------------------------------------------|-------------------------------------------------------|
B|-------------------------------------------------------|-------------------------------------------------------|
G|-------4------------------------------------%----------|-------4------------------------------------%----------|
D|------------4-------------------------------%----------|------------4-------------------------------%----------|
A|-2---------------2----X----------------2---------5-----|-2---------------2----X----------------2---------5-----|
E|---------------------------2-----5---------------------|---------------------------2-----5---------------------|

E|-------------------------------------------------------|-------------------------------------------------------|
B|-------------------------------------------------------|-------------------------------------------------------|
G|------%---------------%--------------------------------|-------4------------------------------------%----------|
D|------%---------------%--------------------------------|------------4-------------------------------%----------|
A|-2---------5-----2---------------------2----0----5-----|-2---------------2----X----------------2---------5-----|
E|---------------------------2-----5---------------------|---------------------------2-----5---------------------|

E|------------------------|-----------------------------|-------------------------------------------------|
B|------------------------|-----------------------------|-------------------------------------------------|
G|------------------------|-----------------------------|-------------------------------------------------|
D|-4------4---------------|------------0----4-----3-----|-2-----------------------------------------------|
A|-------------4----------|-------4---------------------|------2----------------0----0----2----0----5-----|
E|------------------2-----|-5---------------------------|-----------0-----3-------------------------------|

E|-------------------------------------------------------|-------------------------------------------------------|
B|-------------------------------------------------------|-------------------------------------------------------|
G|-------4------------------------------------%----------|-------4------------------------------------%----------|
D|------------4-------------------------------%----------|------------4-------------------------------%----------|
A|-2---------------2----X----------------2---------5-----|-2---------------2----X----------------2---------5-----|
E|---------------------------2-----5---------------------|---------------------------2-----5---------------------|

E|-------------------------------------------------------|-------------------------------------------------------|
B|-------------------------------------------------------|-------------------------------------------------------|
G|-------4------------------------------------%----------|-------4------------------------------------%----------|
D|------------4-------------------------------%----------|------------4-------------------------------%----------|
A|-2---------------2----X----------------2---------5-----|-2---------------2----X----------------2---------5-----|
E|---------------------------2-----5---------------------|---------------------------2-----5---------------------|

E|-------------------------------------------------------|-------------------------------------------------------|
B|-------------------------------------------------------|-------------------------------------------------------|
G|------%---------------%--------------------------------|-------4------------------------------------%----------|
D|------%---------------%--------------------------------|------------4-------------------------------%----------|
A|-2---------5-----2---------------------2----0----5-----|-2---------------2----X----------------2---------5-----|
E|---------------------------2-----5---------------------|---------------------------2-----5---------------------|

E|-------------------------------------------------------|-------------------------------------------------------|
B|-------------------------------------------------------|-------------------------------------------------------|
G|-------4------------------------------------%----------|-------4------------------------------------%----------|
D|------------4-------------------------------%----------|------------4-------------------------------%----------|
A|-2---------------2----X----------------2---------5-----|-2---------------2----X----------------2---------5-----|
E|---------------------------2-----5---------------------|---------------------------2-----5---------------------|

E|-------------------------------------------------------|-------------------------------------------------------|
B|-------------------------------------------------------|-------------------------------------------------------|
G|------%---------------%--------------------------------|-------4------------------------------------%----------|
D|------%---------------%--------------------------------|------------4-------------------------------%----------|
A|-2---------5-----2---------------------2----0----5-----|-2---------------2----X----------------2---------5-----|
E|---------------------------2-----5---------------------|---------------------------2-----5---------------------|

E|------------------------|-----------------------------|-------------------------------------------------|
B|------------------------|-----------------------------|-------------------------------------------------|
G|------------------------|-----------------------------|-------------------------------------------------|
D|-4------4---------------|------------0----4-----3-----|-2-----------------------------------------------|
A|-------------4----------|-------4---------------------|------2----------------0----0----2----0----5-----|
E|------------------2-----|-5---------------------------|-----------0-----3-------------------------------|

E|-------------------------------------------------------|-------------------------------------------------------|
B|-------------------------------------------------------|-------------------------------------------------------|
G|-------4------------------------------------%----------|-------4------------------------------------%----------|
D|------------4-------------------------------%----------|------------4-------------------------------%----------|
A|-2---------------2----X----------------2---------5-----|-2---------------2----X----------------2---------5-----|
E|---------------------------2-----5---------------------|---------------------------2-----5---------------------|

E|-------------------------------------------------------|-------------------------------------------------------|
B|-------------------------------------------------------|-------------------------------------------------------|
G|-------4------------------------------------%----------|-------4------------------------------------%----------|
D|------------4-------------------------------%----------|------------4-------------------------------%----------|
A|-2---------------2----X----------------2---------5-----|-2---------------2----X----------------2---------5-----|
E|---------------------------2-----5---------------------|---------------------------2-----5---------------------|

E|-------------------------------------------------------|-------------------------------------------------------|
B|-------5-----------------------------------------------|-------5-----------------------------------------------|
G|------------4-------------------------------%----------|------------4-------------------------------%----------|
D|-2---------------2----X----------------2----%----5-----|-2---------------2----X----------------2----%----5-----|
A|---------------------------2-----5---------------------|---------------------------2-----5---------------------|
E|-------------------------------------------------------|-------------------------------------------------------|

E|-------------------------------------------------------|-------------------------------------------------------|
B|-------------------------------------------------------|-------------------------------------------------------|
G|-------4------------------------------------%----------|-------4------------------------------------%----------|
D|------------4-------------------------------%----------|------------4-------------------------------%----------|
A|-2---------------2----X----------------2---------5-----|-2---------------2----X----------------2---------5-----|
E|---------------------------2-----5---------------------|---------------------------2-----5---------------------|

E|------------------------|-----------------------------|-------------------------------------------------|
B|------------------------|-----------------------------|-------------------------------------------------|
G|------------------------|-----------------------------|-------------------------------------------------|
D|-4------4---------------|------------0----4-----3-----|-2-----------------------------------------------|
A|-------------4----------|-------4---------------------|------2----------------0----0----2----0----5-----|
E|------------------2-----|-5---------------------------|-----------0-----3-------------------------------|

E|-------------------------------------------------------------|-------------------------------------------------------------|
B|-------------------------------------------------------------|-------------------------------------------------------------|
G|-------------------------------------------------------------|---------------------------------------------------%----%----|
D|-------------------------------------------------------------|---------------------------------------------------%----%----|
A|-9----9----9----9----9----9----9----9----9----9----9----9----|-9----9----9----9----9----9----9----9----9----9--------------|
E|-7----7----7----7----7----7----7----7----7----7----7----7----|-7----7----7----7----7----7----7----7----7----7--------------|

E|---------|---------|---------|---------|---------|---------|---------|---------|---------|
B|---------|---------|---------|---------|---------|---------|---------|---------|---------|
G|-%-------|-%-------|-%-------|-%-------|-%-------|-%-------|-%-------|-%-------|-%-------|
D|-%-------|-%-------|-%-------|-%-------|-%-------|-%-------|-%-------|-%-------|-%-------|
A|---------|---------|---------|---------|---------|---------|---------|---------|---------|
E|---------|---------|---------|---------|---------|---------|---------|---------|---------|

E|---------|---------|---------|---------|---------|---------|---------|---------|---------|
B|---------|---------|---------|---------|---------|---------|---------|---------|---------|
G|-%-------|-%-------|-%-------|-%-------|-%-------|-%-------|-%-------|-%-------|-%-------|
D|-%-------|-%-------|-%-------|-%-------|-%-------|-%-------|-%-------|-%-------|-%-------|
A|---------|---------|---------|---------|---------|---------|---------|---------|---------|
E|---------|---------|---------|---------|---------|---------|---------|---------|---------|

E|---------|---------|---------|---------|---------|---------|-------------------------------------|
B|---------|---------|---------|---------|---------|---------|-------------------------------------|
G|-%-------|-%-------|-%-------|-%-------|-%-------|-%-------|-------------------------------------|
D|-%-------|-%-------|-%-------|-%-------|-%-------|-%-------|-------------------------------------|
A|---------|---------|---------|---------|---------|---------|-2----2----5----2----4-----3----1----|
E|---------|---------|---------|---------|---------|---------|-------------------------------------|

E|---------------------------------|---------------------------------|---------------------------------|
B|---------------------------------|---------------------------------|---------------------------------|
G|---------------------------------|---------------------------------|---------------------------------|
D|---------------------------------|---------------------------------|---------------------------------|
A|-2----2----5-----4-----3----1----|-2----2----5-----4-----3----1----|-2----2----5-----4-----3----1----|
E|---------------------------------|---------------------------------|---------------------------------|

E|---------------------------------|---------------------------------|---------------------------------|
B|---------------------------------|---------------------------------|---------------------------------|
G|---------------------------------|---------------------------------|---------------------------------|
D|---------------------------------|---------------------------------|---------------------------------|
A|-2----2----5-----4-----3----1----|-2----2----5-----4-----3----1----|-2----2----5-----4-----3----1----|
E|---------------------------------|---------------------------------|---------------------------------|

E|-----------------------------|---------------------------------|---------------------------------|
B|-----------------------------|---------------------------------|---------------------------------|
G|-----------------------------|---------------------------------|---------------------------------|
D|-----------------------------|---------------------------------|---------------------------------|
A|-2----2----5-----4-----2-----|-7----7----6-----5-----4----5----|-7----7----6-----5-----4----5----|
E|-----------------------------|---------------------------------|---------------------------------|

E|---------------------------------|---------------------------------|---------------------------------|
B|---------------------------------|---------------------------------|---------------------------------|
G|---------------------------------|---------------------------------|---------------------------------|
D|---------------------------------|---------------------------------|---------------------------------|
A|-7----7----6-----5-----4----5----|-7----7----6-----5-----4----1----|-2----2----5-----4-----3----1----|
E|---------------------------------|---------------------------------|---------------------------------|

E|---------------------------------|---------------------------------|---------------------------------|
B|---------------------------------|---------------------------------|---------------------------------|
G|---------------------------------|---------------------------------|---------------------------------|
D|---------------------------------|---------------------------------|---------------------------------|
A|-2----2----5-----4-----3----1----|-2----2----5-----4-----3----1----|-2----2----5-----4-----3----2----|
E|---------------------------------|---------------------------------|---------------------------------|

E|-------------------------------------|---------------------------------|-------------------------|
B|-------------------------------------|---------------------------------|-------------------------|
G|-------------------------------------|---------------------------------|-4-----2-----------------|
D|-----------4----0----3-----2----0----|-----------4----0----3-----2-----|-------------5-----4-----|
A|-------------------------------------|---------------------------------|-------------------------|
E|-2----2------------------------------|-2----2--------------------------|-------------------------|

E|-------------------------|------------------------|---------------------------------|
B|-------------------------|------------------------|------------7--------------------|
G|-------------------------|-------%------%---------|-%-----%----7----%-----%---------|
D|-2-----------------------|-------%------%---------|-%-----%----7----%-----%---------|
A|-------5-----4-----3-----|-2----------------------|---------------------------------|
E|-------------------------|-------------------7----|----------------------------7----|

E|------------------------|---------------------------------|----------------------------|
B|------------------------|------------7--------------------|-7----7---------------------|
G|-%------%-----%---------|-%-----%----7----%-----%---------|-7----7----%------%---------|
D|-%------%-----%---------|-%-----%----7----%-----%---------|-7----7----%------%---------|
A|------------------------|---------------------------------|----------------------------|
E|-------------------7----|----------------------------7----|-----------------------7----|

E|-----------------------------------------|-----------------------------------------|
B|-7----7----------------------------------|-7----7----------------------------------|
G|-7----7----%---------%---------%---------|-7----7----%---------%---------%---------|
D|-7----7----%---------%---------%---------|-7----7----%---------%---------%---------|
A|-----------------------------------------|-----------------------------------------|
E|----------------7---------7---------7----|----------------7---------7---------7----|

E|-----------------------------------------|-----------------------------------------|
B|-7----7----------------------------------|-7----7----------------------------------|
G|-7----7----%---------%---------%---------|-7----7----%---------%---------%---------|
D|-7----7----%---------%---------%---------|-7----7----%---------%---------%---------|
A|-----------------------------------------|-----------------------------------------|
E|----------------7---------7---------7----|----------------7---------7---------7----|

E|-----------------------------------------|-----------------------------------------|
B|-7----7----------------------------------|-7----7----------------------------------|
G|-7----7----%---------%---------%---------|-7----7----%---------%---------%---------|
D|-7----7----%---------%---------%---------|-7----7----%---------%---------%---------|
A|-----------------------------------------|-----------------------------------------|
E|----------------7---------7---------7----|----------------7---------7---------7----|

E|-----------------------------------------|-7----7----------------------------------|
B|-7----7----------------------------------|-8----8----------------------------------|
G|-7----7----%---------%---------%---------|-7----7----%---------%---------%---------|
D|-7----7----%---------%---------%---------|-----------%---------%---------%---------|
A|------------------------------------7----|-----------------------------------------|
E|----------------7---------7--------------|----------------0---------0---------0----|

E|-7----7----------------------------------|-7----7----------------------------------|
B|-8----8----------------------------------|-8----8----------------------------------|
G|-7----7----%---------%---------%---------|-7----7----%---------%---------%---------|
D|-----------%---------%---------%---------|-----------%---------%---------%---------|
A|-----------------------------------------|-----------------------------------------|
E|----------------0---------0---------0----|----------------0---------0---------0----|

E|-7----7----------------------------------|-----------------------------------------|
B|-8----8----------------------------------|-7----7----------------------------------|
G|-7----7----%---------%---------%---------|-7----7----%---------%---------%---------|
D|-----------%---------%---------%---------|-7----7----%---------%---------%---------|
A|-----------------------------------------|-----------------------------------------|
E|----------------0---------0---------7----|----------------7---------7---------7----|

E|-----------------------------------------|-----------------------------------------|
B|-7----7----------------------------------|-7----7----------------------------------|
G|-7----7----%---------%---------%---------|-7----7----%---------%---------%---------|
D|-7----7----%---------%---------%---------|-7----7----%---------%---------%---------|
A|-----------------------------------------|-----------------------------------------|
E|----------------7---------7---------7----|----------------7---------7---------7----|

E|-----------------------------------------|-------------------------------------|---------------------------------|
B|-7----7----------------------------------|-------------------------------------|---------------------------------|
G|-7----7----%---------%---------%---------|-------------------------------------|---------------------------------|
D|-7----7----%---------%---------%---------|-----------4----0----3-----2----0----|-----------4----0----3-----2-----|
A|-----------------------------------------|-------------------------------------|---------------------------------|
E|----------------7---------7---------2----|-2----2------------------------------|-2----2--------------------------|

E|-------------------------|-------------------------|-------------------------------------------------------|
B|-------------------------|-------------------------|-------------------------------------------------------|
G|-4-----2-----------------|-------------------------|-------4-----------------------------------------------|
D|-------------5-----4-----|-2-----------------------|------------4------------------------------------------|
A|-------------------------|-------5-----4-----3-----|-2---------------2----X----------------2----X----5-----|
E|-------------------------|-------------------------|---------------------------2-----5---------------------|

E|-------------------------------------------------------|-------------------------------------------------------|
B|-------------------------------------------------------|-------------------------------------------------------|
G|-------4------------------------------------%----------|-------4------------------------------------%----------|
D|------------4-------------------------------%----------|------------4-------------------------------%----------|
A|-2---------------2----X----------------2---------5-----|-2---------------2----X----------------2---------5-----|
E|---------------------------2-----5---------------------|---------------------------2-----5---------------------|

E|-------------------------------------------------------|-------------------------------------------------------|
B|-------------------------------------------------------|-------------------------------------------------------|
G|-------4------------------------------------%----------|------%---------------%--------------------------------|
D|------------4-------------------------------%----------|------%---------------%--------------------------------|
A|-2---------------2----X----------------2---------5-----|-2---------5-----2---------------------2----0----5-----|
E|---------------------------2-----5---------------------|---------------------------2-----5---------------------|

E|-------------------------------------------------------|-------------------------------------------------------|
B|-------------------------------------------------------|-------------------------------------------------------|
G|-------4------------------------------------%----------|-------4------------------------------------%----------|
D|------------4-------------------------------%----------|------------4-------------------------------%----------|
A|-2---------------2----X----------------2---------5-----|-2---------------2----X----------------2---------5-----|
E|---------------------------2-----5---------------------|---------------------------2-----5---------------------|

E|-------------------------------------------------------|-------------------------------------------------------|
B|-------------------------------------------------------|-------------------------------------------------------|
G|-------4------------------------------------%----------|------%---------------%--------------------------------|
D|------------4-------------------------------%----------|------%---------------%--------------------------------|
A|-2---------------2----X----------------2---------5-----|-2---------5-----2---------------------2----0----5-----|
E|---------------------------2-----5---------------------|---------------------------2-----5---------------------|

E|-------------------------------------------------------|-------------------------------------|
B|-------------------------------------------------------|-------------------------------------|
G|-------4------------------------------------%----------|------------------------%------%-----|
D|------------4-------------------------------%----------|-4------4---------------%------%-----|
A|-2---------------2----X----------------2---------5-----|-------------4-----------------------|
E|---------------------------2-----5---------------------|------------------2------------------|

E|-----------------------------|-----------------------------|------------------------------------|
B|-----------------------------|-----------------------------|------------------------------------|
G|-----------------------------|-----------------------------|-----------------------------%------|
D|------------0----4-----3-----|------------0----4-----3-----|-----------------------------%------|
A|-------4---------------------|-------4---------------------|-2-----5-----2----2----5------------|
E|-5---------------------------|-5---------------------------|------------------------------------|

E|------------------------------------------|------------------------------------------|
B|------------------------------------------|------------------------------------------|
G|-----------------------------%------%-----|-----------------------------%------%-----|
D|-----------------------------%------%-----|-----------------------------%------%-----|
A|-2-----5-----2----2----5------------------|-2-----5-----2----2----5------------------|
E|------------------------------------------|------------------------------------------|

E|-----------------------------|-----------------------------|-----------------------------|
B|-----------------------------|-----------------------------|-----------------------------|
G|-----------------------------|-----------------------------|-----------------------------|
D|-----------------------------|-----------------------------|-----------------------------|
A|-2-----5-----2----2----5-----|-2-----5-----2----2----5-----|-2-----5-----2----2----5-----|
E|-----------------------------|-----------------------------|-----------------------------|

E|-----------------------------|-----------------------------|-----------------------------|
B|-----------------------------|-----------------------------|-----------------------------|
G|-----------------------------|-----------------------------|-----------------------------|
D|-----------------------------|-----------------------------|-----------------------------|
A|-2-----5-----2----2----5-----|-2-----5-----2----2----5-----|-2-----5-----2----2----5-----|
E|-----------------------------|-----------------------------|-----------------------------|

E|-----------------------------|-----------------------------|-----------------------------|
B|-----------------------------|-----------------------------|-----------------------------|
G|-----------------------------|-----------------------------|-----------------------------|
D|-----------------------------|-----------------------------|-----------------------------|
A|-2-----5-----2----2----5-----|-2-----5-----2----2----5-----|-2-----5-----2----2----5-----|
E|-----------------------------|-----------------------------|-----------------------------|

E|-----------------------------|---------|---------|---------|---------|---------|---------|
B|-----------------------------|---------|---------|---------|---------|---------|---------|
G|-----------------------------|-%-------|-%-------|-%-------|-%-------|-%-------|-%-------|
D|-----------------------------|-%-------|-%-------|-%-------|-%-------|-%-------|-%-------|
A|-2-----5-----2----2----5-----|---------|---------|---------|---------|---------|---------|
E|-----------------------------|---------|---------|---------|---------|---------|---------|

E|---------|---------|---------|---------|---------|---------|---------|---------|
B|---------|---------|---------|---------|---------|---------|---------|---------|
G|-%-------|-%-------|-%-------|-%-------|-%-------|-%-------|-%-------|-%-------|
D|-%-------|-%-------|-%-------|-%-------|-%-------|-%-------|-%-------|-%-------|
A|---------|---------|---------|---------|---------|---------|---------|---------|
E|---------|---------|---------|---------|---------|---------|---------|---------|
Pink Floyd - Money
Pink Floyd - Money.gp3