Pink Floyd - Mother

Pink Floyd



Title: Mother
Album: 
Artist: 
Author: Pink Floyd

Track 1: Guitar 1
E|-3---3---3---3---3---3---3---3---3----3----|--------0----0---------------0---0---0---0---|
B|-3---3---3---3---3---3---3---3---3----0----|-1------1----1---1---1---1---1---1---1---1---|
G|-0---0---0---0---0---0---0---0---0----0----|-0------0----0---0---0---0---0---0---0---0---|
D|-0---0---0---0---0---0---0---0---0----0----|-2------2----2---2---2---2---2---2---2---2---|
A|-X---------------X-----------X---0---------|-3------3----3---3---3---3---3---3---3---3---|
E|-3---------------3-----------3---3---------|---------------------------------------------|

E|----------------------0----0---0----0---0---------------|----------3--------3----3---3---3---3---3---3---3---3---|
B|-1-------1---1---1----1----1---1----1---1-------3---3---|-0----3------------3----3---3---3---3---3---3---3---3---|
G|-0-------0---0---0----0----0---0----0---0---0---2---0---|-0-----------------0----0---0---0---0---0---0---0---0---|
D|-0---2---2---2---2----2----2---2----2---2---0---0---0---|-0-----------------0----0---0---0---0---0---0---0---0---|
A|-3-------3---3---3----3----3---3----3---3---------------|-2------------2-------------------------2---2---2---2---|
E|--------------------------------------------------------|-3------------3-------------------------3---3---3---3---|

E|-3---3---3---3------------------------|-0-----0--------0----0-------0---0---0---0---0---0---|
B|-3---3---3---3---3---3---0---3---5----|-1-----1--------1----1-------1---1---1---1---1---1---|
G|-0---0---0---0---0---0---0---0--------|-0-----0---0----0----0---0---0---0---0---0---0---0---|
D|-0---0---0---0---0---0---0---0--------|-2---------2-------------2-----------2---2---2---2---|
A|-X---X---X---X---X---X---X------------|-3---------3-------------3-----------3---3---3---3---|
E|-3---3---3---3---3---3---3------------|-----------------------------------------------------|

E|-0----0---0--------0----0---0---0---0---0---X---3---3---|-3-----------------------3---3---3---3---3---3---3---|
B|-1----1---1--------1----1---1---1---1---1---X---3---3---|-3-----3--------3----3---3---3---3---3---3---3---3---|
G|-0----0---0--------0----0---0---0---0---0---X---2---2---|-0-----0--------0----0---0---0---0---0---0---0---0---|
D|-2----2---2--------2----2---2---2---2---2---X---0---0---|-0-----0--------0----0---------------0---------------|
A|-3------------3---------3---3---3---3---3---X-----------|-2---------2-------------------------2---------------|
E|--------------3-----------------------------------------|-3---------3-------------------------3---------------|

E|-3-----------------------3---3---3---3---3---0---0---|--------------0----0---0---0----0---0---0---0---0-------|
B|-3-----3--------3----3---3---0---3---0---3---0---0---|-1--------1---1----1---1---1----1---1---1---1---1---3---|
G|-0-----0--------0----0---0---0---0---0---0---0---0---|-0----0---0---0----0---0---0----0---0---0---0---0---0---|
D|-0-----0--------0----0-------0---0---0---0---0---0---|-2----2---2---2----2---2---2----2---2---2---2---2---0---|
A|-2---------2-----------------------------------------|-3----3-------3----3---3---3----3---3---3---3---3-------|
E|-3---------3-----------------------------------------|--------------------------------------------------------|

E|-3-----3--------3----3---3----3---3---3---3---3---|-3-----3--------3----3---3---3---3---3-------0---2---|
B|-3-----3--------3----3---3----3---3---3---3---3---|-3-----3--------3----3---3---3---3---3---3---3---3---|
G|-0-----0--------0----0---0----0---0---0---0---0---|-0-----0--------0----0---0---0---0---0---2---2---2---|
D|-0-----0--------0----0---0----0---0---0---0---0---|-0-----0--------0----0---0---0---0---0---0---0---0---|
A|-2---------2------------------2---2---2---2---2---|-2---------2-----------------------------------------|
E|-3---------3------------------3---3---3---3---3---|-3---------3-----------------------------------------|

E|-2----2---------2----2---2---2---2---2-------0---0---|-3-----0---0---0---0---0---0-----------|
B|-3----3---------3----3---3---3---3---3-------1---1---|-1-----1---1---1---1---1---1---3---X---|
G|-2----2---------2----2---2---2---2---2-------0---0---|-0-----2---0---0---0---0---0---2---X---|
D|-0---------0-------------0---0---0---0---0-----------|-2-----3---2---2---2---2---2---0---X---|
A|-----------------------------------------------------|-3---------------------3---3-----------|
E|-----------------------------------------------------|---------------------------------------|

E|-3-----3--------3----3---3-------3---3----3---3---|-------------3--------3----3---3---3---3---3---3---3---3---|
B|-3-----3--------3----3---3-------3---3----3---3---|---------3---3--------3----3---3---3---3---3---3---3---3---|
G|-0-----0--------0----0-------0-------0----0---0---|-0-------0---0--------0----0---0---0---0---0---0---0---0---|
D|-0-----0--------0----0---------------0----0---0---|-0-------0---0--------0----0---0---0---0---0---0---0---0---|
A|-2---------2-------------------------2----0-------|-0---2-----------2-------------------------2---------------|
E|-3---------3-------------------------3------------|-3---------------3-------------------------3---------------|

E|-3---3---3---3---3---3---3---3---3----|--------0----0---------------0---0---0---0---|
B|-3---3---3---3---3---3---3---3---3----|-1------1----1---1---1---1---1---1---1---1---|
G|-0---0---0---0---0---0---0---0---0----|-0------0----0---0---0---0---0---0---0---0---|
D|-0---0---0---0---0---0---0---0---0----|-2------2----2---2---2---2---2---2---2---2---|
A|-X---------------X-----------X--------|-3------3----3---3---3---3---3---3---3---3---|
E|-3---------------3-----------3--------|---------------------------------------------|

E|----------------------0----0---0----0---0---------------|----------3--------3----3---3---3---3---3---3---3---3---|
B|-1-------1---1---1----1----1---1----1---1-------3---3---|-0----3------------3----3---3---3---3---3---3---3---3---|
G|-0-------0---0---0----0----0---0----0---0---0---2---0---|-0-----------------0----0---0---0---0---0---0---0---0---|
D|-0---2---2---2---2----2----2---2----2---2---0---0---0---|-0-----------------0----0---0---0---0---0---0---0---0---|
A|-3-------3---3---3----3----3---3----3---3---------------|-2------------2-------------------------2---2---2---2---|
E|--------------------------------------------------------|-3------------3-------------------------3---3---3---3---|

E|-3---3---3---3------------------------|-0-----0--------0----0-------0---0---0---0---0---0---|
B|-3---3---3---3---3---3---0---3---5----|-1-----1--------1----1-------1---1---1---1---1---1---|
G|-0---0---0---0---0---0---0---0--------|-0-----0---0----0----0---0---0---0---0---0---0---0---|
D|-0---0---0---0---0---0---0---0--------|-2---------2-------------2-----------2---2---2---2---|
A|-X---X---X---X---X---X---X------------|-3---------3-------------3-----------3---3---3---3---|
E|-3---3---3---3---3---3---3------------|-----------------------------------------------------|

E|-0----0---0--------0----0---0---0---0---0---X---3---3---|-3-----------------------3---3---3---3---3---3---3---|
B|-1----1---1--------1----1---1---1---1---1---X---3---3---|-3-----3--------3----3---3---3---3---3---3---3---3---|
G|-0----0---0--------0----0---0---0---0---0---X---2---2---|-0-----0--------0----0---0---0---0---0---0---0---0---|
D|-2----2---2--------2----2---2---2---2---2---X---0---0---|-0-----0--------0----0---------------0---------------|
A|-3------------3---------3---3---3---3---3---X-----------|-2---------2-------------------------2---------------|
E|--------------3-----------------------------------------|-3---------3-------------------------3---------------|

E|-3-----------------------3---3---3---3---3---0---0---|--------------0----0---0---0----0---0---0---0---0-------|
B|-3-----3--------3----3---3---0---3---0---3---0---0---|-1--------1---1----1---1---1----1---1---1---1---1---3---|
G|-0-----0--------0----0---0---0---0---0---0---0---0---|-0----0---0---0----0---0---0----0---0---0---0---0---0---|
D|-0-----0--------0----0-------0---0---0---0---0---0---|-2----2---2---2----2---2---2----2---2---2---2---2---0---|
A|-2---------2-----------------------------------------|-3----3-------3----3---3---3----3---3---3---3---3-------|
E|-3---------3-----------------------------------------|--------------------------------------------------------|

E|-3-----3--------3----3---3----3---3---3---3---3---|-3-----3--------3----3---3---3---3---3-------0---2---|
B|-3-----3--------3----3---3----3---3---3---3---3---|-3-----3--------3----3---3---3---3---3---3---3---3---|
G|-0-----0--------0----0---0----0---0---0---0---0---|-0-----0--------0----0---0---0---0---0---2---2---2---|
D|-0-----0--------0----0---0----0---0---0---0---0---|-0-----0--------0----0---0---0---0---0---0---0---0---|
A|-2---------2------------------2---2---2---2---2---|-2---------2-----------------------------------------|
E|-3---------3------------------3---3---3---3---3---|-3---------3-----------------------------------------|

E|-2----2---------2----2---2---2---2---2-------0---0---|-3-----0---0---0---0---0---0-----------|
B|-3----3---------3----3---3---3---3---3-------1---1---|-1-----1---1---1---1---1---1---3---X---|
G|-2----2---------2----2---2---2---2---2-------0---0---|-0-----2---0---0---0---0---0---2---X---|
D|-0---------0-------------0---0---0---0---0-----------|-2-----3---2---2---2---2---2---0---X---|
A|-----------------------------------------------------|-3---------------------3---3-----------|
E|-----------------------------------------------------|---------------------------------------|

E|-3-----3--------3----3---3-------3---3----3---3---|-------------3--------3----3---3---3---3---3---3---3---3---|
B|-3-----3--------3----3---3-------3---3----3---3---|---------3---3--------3----3---3---3---3---3---3---3---3---|
G|-0-----0--------0----0-------0-------0----0---0---|-0-------0---0--------0----0---0---0---0---0---0---0---0---|
D|-0-----0--------0----0---------------0----0---0---|-0-------0---0--------0----0---0---0---0---0---0---0---0---|
A|-2---------2-------------------------2----0-------|-0---2-----------2-------------------------2---------------|
E|-3---------3-------------------------3------------|-3---------------3-------------------------3---------------|

E|-3----3---3---3---3---3----3----3---3---3----3----|-0----0---0--------0----0---0---0---0---0----0---0--------0----0---0---0---0---|
B|-3----0---3---3---0---3----3----0---3---3----3----|-1----1---1--------1----1---1---1---1---1----1---1--------1----1---1---1---1---|
G|-0----0---0---0---0---0----0----0---0---0----0----|-0----0---0---0----0----0---0---0---0---0----0---0---0----0----0---0---0---0---|
D|-0----0---0---0---0---0----0----0---0---0----0----|-2----2---2---2----2----2---2---2---2---2----2---2---2----2----2---2---2---2---|
A|-X--------X---0-------X----0----X---X---X----X----|-3------------3----3--------------------3------------3----3--------------------|
E|-3--------3---3-------3----3----3---3---3----3----|-------------------------------------------------------------------------------|

E|-1------1----1---1---1---1---0----0---0--------0----0---0---0---0---|-1----1----1----1---------1---1---0----0---0--------0----0---0---0---0---|
B|-1------1----1---1---1---1---1----1---1--------1----1---1---1---1---|-1----1----1----1---------1---1---1----1---1--------1----1---1---1---1---|
G|-2------2----2---2---2---2---0----0---0---0----0----0---0---0---0---|-2----2----2----2---------2---2---0----0---0---0----0----0---0---0---0---|
D|-3------3----3---3---3---3---2----2---2---2----2----2---2---2---2---|-3----3----3----3---------3---3---2----2---2---2----2----2---2---2---2---|
A|-3------3--------------------3------------3----3--------------------|-3----3----3----3----3------------3------------3----3----3---3---3---3---|
E|-1------1-----------------------------------------------------------|-1----1----1----1----1---------------------------------------------------|

E|-1----1----1----1---------1---1---0----0---0--------0----0---0---0---0---|-1----1---1---1----1----1---1---1---1---0----0---0--------0----0---0---0---0---|
B|-1----1----1----1---------1---1---1----1---1--------1----1---1---1---1---|-1----1---1---1----1----1---1---1---1---1----1---1--------1----1---1---1---1---|
G|-2----2----2----2---------2---2---0----0---0---0----0----0---0---0---0---|-2----2---2---2----2----2---2---2---2---0----0---0--------0----0---0---0---0---|
D|-3----3----3----3---------3---3---2----2---2---2----2----2---2---2---2---|-3----3---3---3----3----3---3---3---3---2----2---2---2----2----2---2---2---2---|
A|-3----3----3----3----3------------3------------3----3----3---3---3---3---|-3----3---3---3----3----3---3---3---3---3------------3----3----3---3---3---3---|
E|-1----1----1----1----1---------------------------------------------------|-------------------------------------------------------------------------------|

E|-1---1-------------1----1---1---1---1---0----0------------|-3----3---3--------3----3---3---3---3---3----3---3--------3----3---3---3----|
B|-1---1-------------1----1---1---1---1---1----1----1---1---|-3----3---3--------3----3---3---3---3---3----3---3--------3----3---3---3----|
G|-2---2---2----2----2----2---2---2---2---0----0----0---0---|-0----0---0---0----0----0---0---0---0---0----0---0---0----0----0---0---0----|
D|-3---3---3----3----3----3---3---3---3---2----2----2---2---|-0----0---0---0----0----0---0---0---0---0----0---0---0----0----0---0---0----|
A|-3---3---3----3----3--------------------3----3----3---3---|-2----2---2---2----2--------------------2----2---2---2----2----2---2---2----|
E|-1---1---1----1----1--------------------------------------|-3----3---3---3----3--------------------3----3---3---3----3----3---3---3----|

E|-2----2----2----2----2---2---2----0----0---0--------0----0---0---0----|-2--------------2----2---2---2---2---0----0---0--------0----X---0---0----|
B|-3----3----3----3----3---3---3----1----1---1--------1----1---1---1----|-3----3----3----3----3---3---3---3---1----1---1--------1----X---1---1----|
G|-2----2----2----2----2---2---2----0----0---0---0----0----0---0---0----|-2----2----2----2----2---2---2---2---0----0---0---0----0----X---0---0----|
D|-0----0----0----0----0---0---0----2----2---2---2----2----2---2---2----|-0----0----0----0----0---0---0---0---2----2---2---2----2----X---2---2----|
A|----------------------------------3----3---3---3----3----3---3---3----|-------------------------------------3------------3----3----X-------3----|
E|----------------------------------------------------------------------|-------------------------------------------------------------------------|

E|-2---2---2----2----2----2---2---2---2---0----0---0--------0----0---0---0---0---|-3----3---3---3----3----3---3---3----3---3---3----|
B|-3---3---3----3----3----3---3---3---3---1----1---1--------1----1---1---1---1---|-3----3---3---3----3----3---3---3----3---3---3----|
G|-2---2---2----2----2----2---2---2---2---0----0---0---0----0----0---0---0---0---|-0----0---0---0----0----0---0---0----0---0---0----|
D|-0---0---0----0----0----0---0---0---0---2----2---2---2----2----2---2---2---2---|-0----0---0---0----0----0---0---0----0---0---0----|
A|----------------------------------------3------------3----3----3---3---3---3---|-2----2---2---2----2----2---2---2----2---2---2----|
E|-------------------------------------------------------------------------------|-3----3---3---3----3----3---3---3----3---3---3----|

E|-0----0---0---0----0----0---0---0----0---0---0---0---|-3----3---3---3----3----3---3---3----3---3---3----|
B|-1----1---1---1----1----1---1---1----1---1---1---1---|-3----3---3---3----3----3---3---3----3---3---3----|
G|-0----0---0---0----0----0---0---0----0---0---0---0---|-0----0---0---0----0----0---0---0----0---0---0----|
D|-2----2---2---2----2----2---2---2----2---2---2---2---|-0----0---0---0----0----0---0---0----0---0---0----|
A|-3----3---3---3----3----3---3---3----3---3---3---3---|-2----2---2---2----2----2---2---2----2---2---2----|
E|-----------------------------------------------------|-3----3---3---3----3----3---3---3----3---3---3----|

E|-0----0---0---0----0----0---0---0----0---0---0---0---|-3----3---3---3----3----3---3---3----3---3---3----|
B|-1----1---1---1----1----1---1---1----1---1---1---1---|-3----3---3---3----3----3---3---3----3---3---3----|
G|-0----0---0---0----0----0---0---0----0---0---0---0---|-0----0---0---0----0----0---0---0----0---0---0----|
D|-2----2---2---2----2----2---2---2----2---2---2---2---|-0----0---0---0----0----0---0---0----0---0---0----|
A|-3----3---3---3----3----3---3---3----3---3---3---3---|-2----2---2---2----2----2---2---2----2---2---2----|
E|-----------------------------------------------------|-3----3---3---3----3----3---3---3----3---3---3----|

E|-0----0---0---0----0----0---0---0----0---0-------------2--|-2----2---2---2----2----2---2---2----2---2-------------0--|
B|-1----1---1---1----1----1---1---1----1---1----------3-----|------3---3---3----3----3---3---3----3---3-------------1--|
G|-0----0---0---0----0----0---0---0----0---0-------2--------|------2---2---2----2----2---2---2----2---2----------0-----|
D|-2----2---2---2----2----2---2---2----2---2----0-----------|------0---0---0----0----0---0---0----0---0-------2--------|
A|-3----3---3---3----3----3---3---3----3---3----------------|----------------------------------------------3-----------|
E|----------------------------------------------------------|----------------------------------------------------------|

E|-0----0---0---0----0----0---0---0----0---0---0------------3--|-3----3---3---3----3----3---3---3----0---0---0----|
B|-1----1---1---1----1----1---1---1----1---1---1------------3--|-3----3---3---3----3----3---3---3----1---1---1----|
G|------0---0---0----0----0---0---0----0---0---0------------0--|-0----0---0---0----0----0---0---0----0---0---0----|
D|------2---2---2----2----2---2---2----2---2---2---------0-----|------0---0---0----0----0---0---0----2---2---2----|
A|------3---3---3----3----3---3---3----3---3---3------2--------|------2---2---2----2----2---2---2----3---3---3----|
E|-------------------------------------------------3-----------|------3---3---3----3----3---3---3-----------------|

E|-3---3---3---3---3---3---3---3---3----|--------0----0---------------0---0---0---0---|
B|-3---3---3---3---3---3---3---3---0----|-1------1----1---1---1---1---1---1---1---1---|
G|-0---0---0---0---0---0---0---0---0----|-0------0----0---0---0---0---0---0---0---0---|
D|-0---0---0---0---0---0---0---0---0----|-2------2----2---2---2---2---2---2---2---2---|
A|-X---------------X-----------X--------|-3------3----3---3---3---3---3---3---3---3---|
E|-3---------------3-----------3--------|---------------------------------------------|

E|----------------------0----0---0----0---0---------------|----------3--------3----3---3---3---3---3---3---3---3---|
B|-1-------1---1---1----1----1---1----1---1-------3---3---|-0----3------------3----3---3---3---3---3---3---3---3---|
G|-0-------0---0---0----0----0---0----0---0---0---2---0---|-0-----------------0----0---0---0---0---0---0---0---0---|
D|-0---2---2---2---2----2----2---2----2---2---0---0---0---|-0-----------------0----0---0---0---0---0---0---0---0---|
A|-3-------3---3---3----3----3---3----3---3---------------|-2------------2-------------------------2---2---2---2---|
E|--------------------------------------------------------|-3------------3-------------------------3---3---3---3---|

E|-3---3---3---3------------------------|-0-----0--------0----0-------0---0---0---0---0---0---|
B|-3---3---3---3---3---3---0---3---5----|-1-----1--------1----1-------1---1---1---1---1---1---|
G|-0---0---0---0---0---0---0---0--------|-0-----0---0----0----0---0---0---0---0---0---0---0---|
D|-0---0---0---0---0---0---0---0--------|-2---------2-------------2-----------2---2---2---2---|
A|-X---X---X---X---X---X---X------------|-3---------3-------------3-----------3---3---3---3---|
E|-3---3---3---3---3---3---3------------|-----------------------------------------------------|

E|-0----0---0--------0----0---0---0---0---0---X---3---3---|-3-----------------------3---3---3---3---3---3---3---|
B|-1----1---1--------1----1---1---1---1---1---X---3---3---|-3-----3--------3----3---3---3---3---3---3---3---3---|
G|-0----0---0--------0----0---0---0---0---0---X---2---2---|-0-----0--------0----0---0---0---0---0---0---0---0---|
D|-2----2---2--------2----2---2---2---2---2---X---0---0---|-0-----0--------0----0---------------0---------------|
A|-3------------3---------3---3---3---3---3---X-----------|-2---------2-------------------------2---------------|
E|--------------3-----------------------------------------|-3---------3-------------------------3---------------|

E|-3-----------------------3---3---3---3---3---0---0---|--------------0----0---0---0----0---0---0---0---0-------|
B|-3-----3--------3----3---3---0---3---0---3---0---0---|-1--------1---1----1---1---1----1---1---1---1---1---3---|
G|-0-----0--------0----0---0---0---0---0---0---0---0---|-0----0---0---0----0---0---0----0---0---0---0---0---0---|
D|-0-----0--------0----0-------0---0---0---0---0---0---|-2----2---2---2----2---2---2----2---2---2---2---2---0---|
A|-2---------2-----------------------------------------|-3----3-------3----3---3---3----3---3---3---3---3-------|
E|-3---------3-----------------------------------------|--------------------------------------------------------|

E|-3-----3--------3----3---3----3---3---3---3---3---|-3-----3--------3----3---3---3---3---3-------0---2---|
B|-3-----3--------3----3---3----3---3---3---3---3---|-3-----3--------3----3---3---3---3---3---3---3---3---|
G|-0-----0--------0----0---0----0---0---0---0---0---|-0-----0--------0----0---0---0---0---0---2---2---2---|
D|-0-----0--------0----0---0----0---0---0---0---0---|-0-----0--------0----0---0---0---0---0---0---0---0---|
A|-2---------2------------------2---2---2---2---2---|-2---------2-----------------------------------------|
E|-3---------3------------------3---3---3---3---3---|-3---------3-----------------------------------------|

E|-2----2---------2----2---2---2---2---2-------0---0---|-3-----0---0---0---0---0---0-----------|
B|-3----3---------3----3---3---3---3---3-------1---1---|-1-----1---1---1---1---1---1---3---X---|
G|-2----2---------2----2---2---2---2---2-------0---0---|-0-----2---0---0---0---0---0---2---X---|
D|-0---------0-------------0---0---0---0---0-----------|-2-----3---2---2---2---2---2---0---X---|
A|-----------------------------------------------------|-3---------------------3---3-----------|
E|-----------------------------------------------------|---------------------------------------|

E|-3-----3--------3----3---3-------3---3----3---3---|-------------3--------3----3---3---3---3---3---3---3---3---|
B|-3-----3--------3----3---3-------3---3----3---3---|---------3---3--------3----3---3---3---3---3---3---3---3---|
G|-0-----0--------0----0-------0-------0----0---0---|-0-------0---0--------0----0---0---0---0---0---0---0---0---|
D|-0-----0--------0----0---------------0----0---0---|-0-------0---0--------0----0---0---0---0---0---0---0---0---|
A|-2---------2-------------------------2----0-------|-0---2-----------2-------------------------2---------------|
E|-3---------3-------------------------3------------|-3---------------3-------------------------3---------------|

E|-3----3---3---3---3---3----3----3---3---3----3----|-0----0---0--------0----0---0---0---0---0----0---0--------0----0---0---0---0---|
B|-3----0---3---3---0---3----3----0---3---3----3----|-1----1---1--------1----1---1---1---1---1----1---1--------1----1---1---1---1---|
G|-0----0---0---0---0---0----0----0---0---0----0----|-0----0---0---0----0----0---0---0---0---0----0---0---0----0----0---0---0---0---|
D|-0----0---0---0---0---0----0----0---0---0----0----|-2----2---2---2----2----2---2---2---2---2----2---2---2----2----2---2---2---2---|
A|-X--------X---0-------X----0----X---X---X----X----|-3------------3----3--------------------3------------3----3--------------------|
E|-3--------3---3-------3----3----3---3---3----3----|-------------------------------------------------------------------------------|

E|-1------1----1---1---1---1---0----0---0--------0----0---0---0---0---|-1----1----1----1---------1---1---0----0---0--------0----0---0---0---0---|
B|-1------1----1---1---1---1---1----1---1--------1----1---1---1---1---|-1----1----1----1---------1---1---1----1---1--------1----1---1---1---1---|
G|-2------2----2---2---2---2---0----0---0---0----0----0---0---0---0---|-2----2----2----2---------2---2---0----0---0---0----0----0---0---0---0---|
D|-3------3----3---3---3---3---2----2---2---2----2----2---2---2---2---|-3----3----3----3---------3---3---2----2---2---2----2----2---2---2---2---|
A|-3------3--------------------3------------3----3--------------------|-3----3----3----3----3------------3------------3----3----3---3---3---3---|
E|-1------1-----------------------------------------------------------|-1----1----1----1----1---------------------------------------------------|

E|-1----1----1----1---------1---1---0----0---0--------0----0---0---0---0---|-1----1---1---1----1----1---1---1---1---0----0---0--------0----0---0---0---0---|
B|-1----1----1----1---------1---1---1----1---1--------1----1---1---1---1---|-1----1---1---1----1----1---1---1---1---1----1---1--------1----1---1---1---1---|
G|-2----2----2----2---------2---2---0----0---0---0----0----0---0---0---0---|-2----2---2---2----2----2---2---2---2---0----0---0--------0----0---0---0---0---|
D|-3----3----3----3---------3---3---2----2---2---2----2----2---2---2---2---|-3----3---3---3----3----3---3---3---3---2----2---2---2----2----2---2---2---2---|
A|-3----3----3----3----3------------3------------3----3----3---3---3---3---|-3----3---3---3----3----3---3---3---3---3------------3----3----3---3---3---3---|
E|-1----1----1----1----1---------------------------------------------------|-------------------------------------------------------------------------------|

E|-1---1-------------1----1---1---1---1---0----0------------|-3----3---3--------3----3---3---3---3---3----3---3--------3----3---3---3----|
B|-1---1-------------1----1---1---1---1---1----1----1---1---|-3----3---3--------3----3---3---3---3---3----3---3--------3----3---3---3----|
G|-2---2---2----2----2----2---2---2---2---0----0----0---0---|-0----0---0---0----0----0---0---0---0---0----0---0---0----0----0---0---0----|
D|-3---3---3----3----3----3---3---3---3---2----2----2---2---|-0----0---0---0----0----0---0---0---0---0----0---0---0----0----0---0---0----|
A|-3---3---3----3----3--------------------3----3----3---3---|-2----2---2---2----2--------------------2----2---2---2----2----2---2---2----|
E|-1---1---1----1----1--------------------------------------|-3----3---3---3----3--------------------3----3---3---3----3----3---3---3----|

E|-2----2----2----2----2---2---2----0----0---0--------0----0---0---0----|-2--------------2----2---2---2---2---0----0---0--------0----X---0---0----|
B|-3----3----3----3----3---3---3----1----1---1--------1----1---1---1----|-3----3----3----3----3---3---3---3---1----1---1--------1----X---1---1----|
G|-2----2----2----2----2---2---2----0----0---0---0----0----0---0---0----|-2----2----2----2----2---2---2---2---0----0---0---0----0----X---0---0----|
D|-0----0----0----0----0---0---0----2----2---2---2----2----2---2---2----|-0----0----0----0----0---0---0---0---2----2---2---2----2----X---2---2----|
A|----------------------------------3----3---3---3----3----3---3---3----|-------------------------------------3------------3----3----X-------3----|
E|----------------------------------------------------------------------|-------------------------------------------------------------------------|

E|-2----2----2----2----2---2---2----0----0----0----0----0---0---0----|-3--------------3----3---3---3---3---3---3---3---3---|
B|-3----3----3----3----3---3---3----1----1----1----1----1---1---1----|-3--------------3----3---3---3---3---3---3---3---3---|
G|-2----2----2----2----2---2---2----0----0----0----0----0---0---0----|-0----0----0----0----0---0---0---0---0---0---0---0---|
D|-0----0----0----0----0---0---0----2----2----2----2----2---2---2----|-0----0----0----0----0---0---0---0---0---0---0---0---|
A|----------------------------------3----3----3----3----3---3---3----|-X----X----X----X----X---X---X---X---X---X---X---X---|
E|-------------------------------------------------------------------|-3----3----3----3----3---3---3---3---3---3---3---3---|

E|-3--------------3----3---3---3---3---3---3---3---3---|-3------3----|-------------0-----0-------|
B|-3--------------3----3---3---3---3---3---3---3---3---|-3------3----|----------1----------------|
G|-0----0----0----0----0---0---0---0---0---0---0---0---|-0------0----|-------0-------------------|
D|-0----0----0----0----0---0---0---0---0---0---0---0---|-0------0----|----2----------------------|
A|-X----X----X----X----X---X---X---X---X---X---X---X---|-X------0----|-3-------------------------|
E|-3----3----3----3----3---3---3---3---3---3---3---3---|-3------3----|---------------------------|
Pink Floyd - Mother
Pink Floyd - Mother.gp3