Pink Floyd - One Of My Turns

Pink Floyd



Title: One of my Turns
Album: The Wall
Artist: Pink Floyd
Author: 

Track 1: Guitar1 / Lead 1 
E|---------|--------------------------6---6---6---X---6---6---|-6---6---X---6--------6----6---6---6---6---8---8---X---X---|
B|---------|-8-----8--------6----6----6---6---6---X---6---6---|-8---8---X---8--------6----6---6---6---6---8---8---X---X---|
G|-%-------|-8-----8---%----7----7----7---7---7---X---7---7---|-8---8---X---8---%----7----7---7---7---7---9---9---X---X---|
D|-%-------|-8-----8---%----8----8----8---8---8---X---8---8---|-----------------%----8----8---8---8---8---10--10----------|
A|---------|--------------------------------------------------|-----------------------------------------------------------|
E|---------|--------------------------------------------------|-----------------------------------------------------------|

E|-----------------------------------------------|--------------------------------------------------------|
B|------10---X----10---X------------10---X---X---|-10---X---8---10---X---X---X---X---10---X---X---X---X---|
G|------10---X----10---X----10--10--10---X---X---|-10---X---9---10---X---X---X---X---10---X---X---X---X---|
D|-12--------X----10---X----10--10--10---X---X---|-12---X---10--12---X---X---X---X---12---X---X---X---X---|
A|-----------------------------------------------|--------------------------------------------------------|
E|-----------------------------------------------|--------------------------------------------------------|

E|-------------------6----6----X---X---6----X---X---|-------------------6----6----X---X---6---8-----|
B|-8----X---8--------6----6----X---X---6----X---X---|-8----X---8--------6----6----X---X---6---8-----|
G|-8----X---8---%----7----7----X---X---7----X---X---|-8----X---8---%----7----7----X---X---7---9-----|
D|-8----X---8---%----8----8----X---X---8----X---X---|-8----X---8---%----8----8----X---X---8---10----|
A|--------------------------------------------------|-----------------------------------------------|
E|--------------------------------------------------|-----------------------------------------------|

E|-------------------------------------------|-------------------------------------------|
B|-10---10--10--X----10----------------10----|-10---X---8---8----10---10---X---X---10----|
G|-10---10--10--X----10---%----9---9---10----|-10---X---9---9----10---10---X---X---10----|
D|-12---12--12--X----12---%----10--10--10----|-12---X---10--10---12---12---X---X---12----|
A|-------------------------------------------|-------------------------------------------|
E|-------------------------------------------|-------------------------------------------|

E|-------------------6----6----X---X---6----X---X---|-----------------------------------------------------|
B|-8----X---8--------6----6----X---X---6----X---X---|-8----X---8-------X---6----6----X---X---8---8---X----|
G|-8----X---8---%----7----7----X---X---7----X---X---|-8----X---8---%---X---7----7----X---X---9---9---X----|
D|-8----X---8---%----8----8----X---X---8----X---X---|-8----X---8---%---X---8----8----X---X---10--10--X----|
A|--------------------------------------------------|-----------------------------------------------------|
E|--------------------------------------------------|-----------------------------------------------------|

E|-------------------------------------------|------------------------------------|
B|------10--10--X----10---10-----------10----|-10---X---8---8----10---10----10----|
G|------10--10--X----10---10---10--10--10----|-10---X---9---9----10---10----10----|
D|-12---12--12--X----12---12---10--10--12----|-12---X---10--10---12---12----12----|
A|-------------------------------------12----|------------------------------------|
E|-------------------------------------------|------------------------------------|

E|------------------------|-------------------------------|------------------------|
B|-8----------8----8------|-8----X---6---6----8----8------|-10---------10---10-----|
G|-8-----%----8----8------|-8----X---7---7----8----8------|-10----%----10---10-----|
D|-8-----%----8----8------|-8----X---8---8----8----8------|-12----%----12---12-----|
A|------------------------|-------------------------------|------------------------|
E|------------------------|-------------------------------|------------------------|

E|-----------------------------------------------------|------------------------------------|
B|-10---X---X---X---X---10---10---X---X---X---X---X----|------------------------------------|
G|-10---X---X---X---X---10---10---X---X---X---X---X----|------------------------------------|
D|-12---X---X---X---X---12---12---X---X---X---X---X----|-4------4----4---X-----X---X----X---|
A|-----------------------------------------------------|------------------------------------|
E|-----------------------------------------------------|------------------------------------|

E|----------------------------------------|----------------------|-----------------------------------------------|
B|----------------------------------------|--------------X---X---|-5----X---5---5----3----3----X---X--------X----|
G|----------------------------------------|--------------X---X---|-5----X---5---5----4----4----X---X--------X----|
D|-X-----X---X---X---X--------------------|-5-------5----X---X---|-5----X---5---5----5----5----X---X--------X----|
A|----------------------------------------|----------------------|-----------------------------------------------|
E|------------------------3----3----3-----|----------------------|-------------------------------------6---------|

E|---------------------------------|------------------------|---------|---------|------------------------------------|
B|---------------------------------|------------------------|---------|---------|------------------------------------|
G|-7-----7----7----7----------7----|-10----10---10---10-----|-%-------|-%-------|-7-----7----7----7----------7-------|
D|---------------------------------|------------------------|-%-------|-%-------|------------------------------------|
A|-----------------------8---------|------------------------|---------|---------|-----------------------8--------8---|
E|---------------------------------|------------------------|---------|---------|------------------------------------|

E|---------------------------13--13---|-13---13---13---13---13---------------------------|
B|-6-----6----6----6-----13-----------|-13---13---13---13---13--13--13--13------10--13---|
G|------------------------------------|-------------------------------------12-----------|
D|------------------------------------|--------------------------------------------------|
A|------------------------------------|--------------------------------------------------|
E|------------------------------------|--------------------------------------------------|

E|-12----12--12----12----11----|-11------|------------------------|---------|---------|
B|-----------------------------|---------|------------------------|---------|---------|
G|-----------------------------|---------|-%------%---------------|---------|---------|
D|-----------------------------|---------|-%------%---------------|---------|---------|
A|-----------------------------|---------|------------------------|---------|---------|
E|-----------------------------|---------|--------------1----2----|-3-------|-3-------|

E|---------|---------|---------|
B|---------|---------|---------|
G|-%-------|-%-------|-%-------|
D|-%-------|-%-------|-%-------|
A|---------|---------|---------|
E|---------|---------|---------|
Pink Floyd - One Of My Turns
Pink Floyd - One Of My Turns.gp4