Pink Floyd - One of these Days

Pink Floyd



Title: One of these days
Album: 
Artist: Pink Floyd
Author: 

Track 1: Finger Bass LC
G|---------|---------|---------|---------|---------|---------|---------|---------|---------|
D|-%-------|-%-------|-%-------|-%-------|-%-------|-%-------|-%-------|-%-------|-%-------|
A|-%-------|-%-------|-%-------|-%-------|-%-------|-%-------|-%-------|-%-------|-%-------|
E|---------|---------|---------|---------|---------|---------|---------|---------|---------|

G|-------------------------|-------------------------|--------------------|-------------------------|
D|-------------------------|-------------------------|-------------%------|-------------------------|
A|-2-----2-----2-----2-----|-2-----2-----2-----2-----|-2-----2-----%------|-2-----2-----2-----2-----|
E|-------------------------|-------------------------|--------------------|-------------------------|

G|-------------------------|--------------------|-----------------------|-----------------------|
D|-------------------------|-------------%------|-----------------------|-----------------------|
A|-2-----2-----2-----2-----|-2-----2-----%------|-2-----2----2-----2----|-2-----2----2-----2----|
E|-------------------------|--------------------|-----------------------|-----------------------|

G|-----------------------|-----------------------|-----------------------|-----------------------|
D|-----------------------|-----------------------|-----------------------|-----------------------|
A|-2-----2----2-----2----|-2-----2----2-----2----|-2-----2----2-----2----|-2-----2----2-----2----|
E|-----------------------|-----------------------|-----------------------|-----------------------|

G|-----------------------|-----------------------|-----------------------|-----------------------|
D|-----------------------|-----------------------|-----------------------|-----------------------|
A|-2-----2----2-----2----|-2-----2----2-----2----|-2-----2----2-----2----|-2-----2----2-----2----|
E|-----------------------|-----------------------|-----------------------|-----------------------|

G|-----------------------|-----------------------|-----------------------|-----------------------|
D|-----------------------|-----------------------|-----------------------|-----------------------|
A|-2-----2----2-----2----|-2-----2----2-----2----|-2-----2----2-----2----|-2-----2----2-----2----|
E|-----------------------|-----------------------|-----------------------|-----------------------|

G|-----------------------|-----------------------|-----------------------|-----------------------|
D|-----------------------|-----------------------|-----------------------|-----------------------|
A|-2-----2----2-----2----|-2-----2----2-----2----|-2-----2----2-----2----|-2-----2----2-----2----|
E|-----------------------|-----------------------|-----------------------|-----------------------|

G|-----------------------|-----------------------|-----------------------|-----------------------|
D|-----------------------|-----------------------|-----------------------|-----------------------|
A|-2-----2----2-----2----|-2-----2----2-----2----|-2-----2----2-----2----|-2-----2----2-----2----|
E|-----------------------|-----------------------|-----------------------|-----------------------|

G|-----------------------|-----------------------|-----------------------|-----------------------|
D|-----------------------|-----------------------|-----------------------|-----------------------|
A|-2-----2----2-----2----|-2-----2----2-----2----|-2-----2----2-----2----|-2-----2----2-----2----|
E|-----------------------|-----------------------|-----------------------|-----------------------|

G|-----------------------|-----------------------|-----------------------|-----------------------|
D|-----------------------|-----------------------|-----------------------|-----------------------|
A|-2-----2----2-----2----|-2-----2----2-----2----|-2-----2----2-----2----|-2-----2----2-----2----|
E|-----------------------|-----------------------|-----------------------|-----------------------|

G|-----------------------|-----------------------|-----------------------|-----------------------|
D|-----------------------|-----------------------|-----------------------|-----------------------|
A|-2-----2----2-----2----|-2-----2----2-----2----|-0-----0----0-----0----|-0-----0----0-----0----|
E|-----------------------|-----------------------|-----------------------|-----------------------|

G|-----------------------|-----------------------|-----------------------|-----------------------|
D|-----------------------|-----------------------|-----------------------|-----------------------|
A|-0-----0----0-----0----|-0-----0----0-----0----|-0-----0----0-----0----|-0-----0----0-----0----|
E|-----------------------|-----------------------|-----------------------|-----------------------|

G|-----------------------|-----------------------|-----------------------|-----------------------|
D|-----------------------|-----------------------|-----------------------|-----------------------|
A|-0-----0----0-----0----|-0-----0----0-----0----|-0-----0----0-----0----|-0-----0----0-----0----|
E|-----------------------|-----------------------|-----------------------|-----------------------|

G|-----------------------|-----------------------|-----------------------|-----------------------|
D|-----------------------|-----------------------|-----------------------|-----------------------|
A|-0-----0----0-----0----|-0-----0----0-----0----|-0-----0----0-----0----|-0-----0----0-----0----|
E|-----------------------|-----------------------|-----------------------|-----------------------|

G|-----------------------|-----------------------|-----------------------|-----------------------|
D|-----------------------|-----------------------|-----------------------|-----------------------|
A|-0-----0----0-----0----|-0-----0----0-----0----|-0-----0----0-----0----|-2-----2----2-----2----|
E|-----------------------|-----------------------|-----------------------|-----------------------|

G|-----------------------|-----------------------|-----------------------|-----------------------|
D|-----------------------|-----------------------|-----------------------|-----------------------|
A|-2-----2----2-----2----|-2-----2----2-----2----|-2-----2----2-----2----|-2-----2----2-----2----|
E|-----------------------|-----------------------|-----------------------|-----------------------|

G|-----------------------|-----------------------|-----------------------|-----------------------|
D|-----------------------|-----------------------|-----------------------|-----------------------|
A|-2-----2----2-----2----|-2-----2----2-----2----|-0-----0----0-----0----|-2-----2----2-----2----|
E|-----------------------|-----------------------|-----------------------|-----------------------|

G|-----------------------|-----------------------|-----------------------|-----------------------|
D|-----------------------|-----------------------|-----------------------|-----------------------|
A|-2-----2----2-----2----|-2-----2----2-----2----|-2-----2----2-----2----|-2-----2----2-----2----|
E|-----------------------|-----------------------|-----------------------|-----------------------|

G|-----------------------|-----------------------|-----------------------|-----------------------|
D|-----------------------|-----------------------|-----------------------|-----------------------|
A|-2-----2----2-----2----|-2-----2----2-----2----|-2-----2----2-----2----|-2-----2----2-----2----|
E|-----------------------|-----------------------|-----------------------|-----------------------|

G|-----------------------|-----------------------|-----------------------|-----------------------|
D|-----------------------|-----------------------|-----------------------|-----------------------|
A|-2-----2----2-----2----|-2-----2----2-----2----|-2-----2----2-----2----|-2-----2----2-----2----|
E|-----------------------|-----------------------|-----------------------|-----------------------|

G|-----------------------|-----------------------|-----------------------|-----------------------|
D|-----------------------|-----------------------|-----------------------|-----------------------|
A|-2-----2----2-----2----|-2-----2----2-----2----|-2-----2----2-----2----|-2-----2----2-----2----|
E|-----------------------|-----------------------|-----------------------|-----------------------|

G|-----------------------|-----------------------|-----------------------|-----------------------|
D|-----------------------|-----------------------|-----------------------|-----------------------|
A|-0-----0----0-----0----|-0-----0----0-----0----|-0-----0----0-----0----|-0-----0----0-----0----|
E|-----------------------|-----------------------|-----------------------|-----------------------|

G|-----------------------|-----------------------|-----------------------|-----------------------|
D|-----------------------|-----------------------|-----------------------|-----------------------|
A|-0-----0----0-----0----|-0-----0----0-----0----|-0-----0----0-----0----|-2-----2----2-----2----|
E|-----------------------|-----------------------|-----------------------|-----------------------|

G|-----------------------|-----------------------|-----------------------|-----------------------|
D|-----------------------|-----------------------|-----------------------|-----------------------|
A|-2-----2----2-----2----|-2-----2----2-----2----|-2-----2----2-----2----|-2-----2----2-----2----|
E|-----------------------|-----------------------|-----------------------|-----------------------|

G|-----------------------|-----------------------|-----------------------|-----------------------|
D|-----------------------|-----------------------|-----------------------|-----------------------|
A|-2-----2----2-----2----|-2-----2----2-----2----|-2-----2----2-----2----|-2-----2----2-----2----|
E|-----------------------|-----------------------|-----------------------|-----------------------|

G|-----------------------|-----------------------|-----------------------|-----------------------|
D|-----------------------|-----------------------|-----------------------|-----------------------|
A|-2-----2----2-----2----|-2-----2----2-----2----|-2-----2----2-----2----|-2-----2----2-----2----|
E|-----------------------|-----------------------|-----------------------|-----------------------|

G|-----------------------|-----------------------|-----------------------|-----------------------|
D|-----------------------|-----------------------|-----------------------|-----------------------|
A|-2-----2----2-----2----|-2-----2----2-----2----|-2-----2----2-----2----|-2-----2----2-----2----|
E|-----------------------|-----------------------|-----------------------|-----------------------|

G|-----------------------|-----------------------|-----------------------|-----------------------|
D|-----------------------|-----------------------|-----------------------|-----------------------|
A|-2-----2----2-----2----|-2-----2----2-----2----|-2-----2----2-----2----|-2-----2----2-----2----|
E|-----------------------|-----------------------|-----------------------|-----------------------|

G|-----------------------|-----------------------|-----------------------|-----------------------|
D|-----------------------|-----------------------|-----------------------|-----------------------|
A|-2-----2----2-----2----|-2-----2----2-----2----|-2-----2----2-----2----|-2-----2----2-----2----|
E|-----------------------|-----------------------|-----------------------|-----------------------|

G|-----------------------|-----------------------|-----------------------|-----------------------|
D|-----------------------|-----------------------|-----------------------|-----------------------|
A|-0-----0----0-----0----|-0-----0----0-----0----|-0-----0----0-----0----|-0-----0----0-----0----|
E|-----------------------|-----------------------|-----------------------|-----------------------|

G|-----------------------|-----------------------|-----------------------|-----------------------|
D|-----------------------|-----------------------|-----------------------|-----------------------|
A|-0-----0----0-----0----|-0-----0----0-----0----|-0-----0----0-----0----|-0-----0----0-----0----|
E|-----------------------|-----------------------|-----------------------|-----------------------|

G|-----------------------|-----------------------|-----------------------|-----------------------|
D|-----------------------|-----------------------|-----------------------|-----------------------|
A|-0-----0----0-----0----|-2-----2----2-----2----|-2-----2----2-----2----|-2-----2----2-----2----|
E|-----------------------|-----------------------|-----------------------|-----------------------|

G|-----------------------|-----------------------|-----------------------|-----------------------|
D|-----------------------|-----------------------|-----------------------|-----------------------|
A|-2-----2----2-----2----|-2-----2----2-----2----|-2-----2----2-----2----|-2-----2----2-----2----|
E|-----------------------|-----------------------|-----------------------|-----------------------|

G|-----------------------|-----------------------|-----------------------|-----------------------|
D|-----------------------|-----------------------|-----------------------|-----------------------|
A|-2-----2----2-----2----|-2-----2----2-----2----|-2-----2----2-----2----|-2-----2----2-----2----|
E|-----------------------|-----------------------|-----------------------|-----------------------|

G|-----------------------|-----------------------|-----------------------|-----------------------|
D|-----------------------|-----------------------|-----------------------|-----------------------|
A|-2-----2----2-----2----|-2-----2----2-----2----|-2-----2----2-----2----|-2-----2----2-----2----|
E|-----------------------|-----------------------|-----------------------|-----------------------|

G|-----------------------|-----------------------|-----------------------|-----------------------|
D|-----------------------|-----------------------|-----------------------|-----------------------|
A|-2-----2----2-----2----|-2-----2----2-----2----|-2-----2----2-----2----|-2-----2----2-----2----|
E|-----------------------|-----------------------|-----------------------|-----------------------|

G|-----------------------|-----------------------|-----------------------|-----------------------|
D|-----------------------|-----------------------|-----------------------|-----------------------|
A|-2-----2----2-----2----|-2-----2----2-----2----|-2-----2----2-----2----|-0-----0----0-----0----|
E|-----------------------|-----------------------|-----------------------|-----------------------|

G|-----------------------|-----------------------|-----------------------|-----------------------|
D|-----------------------|-----------------------|-----------------------|-----------------------|
A|-0-----0----0-----0----|-0-----0----0-----0----|-0-----0----0-----0----|-0-----0----0-----0----|
E|-----------------------|-----------------------|-----------------------|-----------------------|

G|-----------------------|-----------------------|-----------------------|-----------------------|
D|-----------------------|-----------------------|-----------------------|-----------------------|
A|-0-----0----0-----0----|-0-----0----0-----0----|-0-----0----0-----0----|-2-----2----2-----2----|
E|-----------------------|-----------------------|-----------------------|-----------------------|

G|-----------------------|-----------------------|-----------------------|-----------------------|
D|-----------------------|-----------------------|-----------------------|-----------------------|
A|-2-----2----2-----2----|-2-----2----2-----2----|-2-----2----2-----2----|-2-----2----2-----2----|
E|-----------------------|-----------------------|-----------------------|-----------------------|

G|-----------------------|-----------------------|-----------------------|-----------------------|
D|-----------------------|-----------------------|-----------------------|-----------------------|
A|-2-----2----2-----2----|-2-----2----2-----2----|-2-----2----2-----2----|-2-----2----2-----2----|
E|-----------------------|-----------------------|-----------------------|-----------------------|

G|-------------------------------|-------------------------------|-------------------------------|
D|-------------------------------|-------------------------------|-0----0----0----0----0----0----|
A|-2----2----2----2----2----2----|-2----2----2----2----2----2----|-------------------------------|
E|-------------------------------|-------------------------------|-------------------------------|

G|-------------------------------|-------------------------------|-------------------------------|
D|-------------------------------|-------------------------------|-------------------------------|
A|-0----0----0----0----0----0----|-2----2----2----2----2----2----|-2----2----2----2----2----2----|
E|-------------------------------|-------------------------------|-------------------------------|

G|-------------------------------|-------------------------------|-------------------------------|
D|-------------------------------|-------------------------------|-------------------------------|
A|-2----2----2----2----2----2----|-2----2----2----2----2----2----|-2----2----2----2----2----2----|
E|-------------------------------|-------------------------------|-------------------------------|

G|-------------------------------|-------------------------------|-------------------------------|
D|-------------------------------|-------------------------------|-0----0----0----0----0----0----|
A|-2----2----2----2----2----2----|-2----2----2----2----2----2----|-------------------------------|
E|-------------------------------|-------------------------------|-------------------------------|

G|-------------------------------|-------------------------------|-------------------------------|
D|-------------------------------|-------------------------------|-------------------------------|
A|-0----0----0----0----0----0----|-2----2----2----2----2----2----|-2----2----2----2----2----2----|
E|-------------------------------|-------------------------------|-------------------------------|

G|-------------------------------|-------------------------------|-------------------------------|
D|-------------------------------|-------------------------------|-------------------------------|
A|-2----2----2----2----2----2----|-2----2----2----2----2----2----|-2----2----2----2----2----2----|
E|-------------------------------|-------------------------------|-------------------------------|

G|-------------------------------|-------------------------------|-------------------------------|
D|-------------------------------|-------------------------------|-------------------------------|
A|-2----2----2----2----2----2----|-2----2----2----2----2----2----|-2----2----2----2----2----2----|
E|-------------------------------|-------------------------------|-------------------------------|

G|-------------------------------|-------------------------------|-------------------------------|
D|-0----0----0----0----0----0----|-------------------------------|-------------------------------|
A|-------------------------------|-0----0----0----0----0----0----|-2----2----2----2----2----2----|
E|-------------------------------|-------------------------------|-------------------------------|

G|-------------------------------|-------------------------------|-------------------------------|
D|-------------------------------|-------------------------------|-------------------------------|
A|-2----2----2----2----2----2----|-2----2----2----2----2----2----|-2----2----2----2----2----2----|
E|-------------------------------|-------------------------------|-------------------------------|

G|-------------------------------|-------------------------------|-------------------------------|
D|-0----0----0----0----0----0----|-------------------------------|-------------------------------|
A|-------------------------------|-0----0----0----0----0----0----|-2----2----2----2----2----2----|
E|-------------------------------|-------------------------------|-------------------------------|

G|-------------------------------|-------------------------------|-------------------------------|
D|-------------------------------|-------------------------------|-------------------------------|
A|-2----2----2----2----2----2----|-2----2----2----2----2----2----|-2----2----2----2----2----2----|
E|-------------------------------|-------------------------------|-------------------------------|

G|-------------------------------|-------------------------------|-------------------------------|
D|-------------------------------|-------------------------------|-------------------------------|
A|-2----2----2----2----2----2----|-2----2----2----2----2----2----|-2----2----2----2----2----2----|
E|-------------------------------|-------------------------------|-------------------------------|

G|-------------------------------|-------------------------------|-------------------------------|
D|-0----0----0----0----0----0----|-------------------------------|-------------------------------|
A|-------------------------------|-0----0----0----0----0----0----|-2----2----2----2----2----2----|
E|-------------------------------|-------------------------------|-------------------------------|

G|-------------------------------|-------------------------------|-------------------------------|
D|-------------------------------|-------------------------------|-------------------------------|
A|-2----2----2----2----2----2----|-2----2----2----2----2----2----|-2----2----2----2----2----2----|
E|-------------------------------|-------------------------------|-------------------------------|

G|-------------------------------|-------------------------------|-------------------------------|
D|-------------------------------|-------------------------------|-------------------------------|
A|-2----2----2----2----2----2----|-2----2----2----2----2----2----|-2----2----2----2----2----2----|
E|-------------------------------|-------------------------------|-------------------------------|

G|-------------------------------|-------------------------------|-------------------------------|
D|-------------------------------|-0----0----0----0----0----0----|-------------------------------|
A|-2----2----2----2----2----2----|-------------------------------|-0----0----0----0----0----0----|
E|-------------------------------|-------------------------------|-------------------------------|

G|-------------------------------|-------------------------------|-------------------------------|
D|-------------------------------|-------------------------------|-------------------------------|
A|-2----2----2----2----2----2----|-2----2----2----2----2----2----|-2----2----2----2----2----2----|
E|-------------------------------|-------------------------------|-------------------------------|

G|-------------------------------|-------------------------------|-------------------------------|
D|-------------------------------|-0----0----0----0----0----0----|-------------------------------|
A|-2----2----2----2----2----2----|-------------------------------|-0----0----0----0----0----0----|
E|-------------------------------|-------------------------------|-------------------------------|

G|-------------------------------|-------------------------------|-------------------------------|
D|-------------------------------|-------------------------------|-------------------------------|
A|-2----2----2----2----2----2----|-2----2----2----2----2----2----|-2----2----2----2----2----2----|
E|-------------------------------|-------------------------------|-------------------------------|

G|-------------------------------|-------------------------------|-------------------------------|
D|-------------------------------|-------------------------------|-------------------------------|
A|-2----2----2----2----2----2----|-2----2----2----2----2----2----|-2----2----2----2----2----2----|
E|-------------------------------|-------------------------------|-------------------------------|

G|-------------------------------|-------------------------------|-------------------------------|
D|-------------------------------|-0----0----0----0----0----0----|-------------------------------|
A|-2----2----2----2----2----2----|-------------------------------|-0----0----0----0----0----0----|
E|-------------------------------|-------------------------------|-------------------------------|

G|-------------------------------|-------------------------------|-------------------------------|
D|-------------------------------|-------------------------------|-------------------------------|
A|-2----2----2----2----2----2----|-2----2----2----2----2----2----|-2----2----2----2----2----2----|
E|-------------------------------|-------------------------------|-------------------------------|

G|-------------------------------|-------------------------------|-------------------------------|
D|-------------------------------|-------------------------------|-------------------------------|
A|-2----2----2----2----2----2----|-2----2----2----2----2----2----|-2----2----2----2----2----2----|
E|-------------------------------|-------------------------------|-------------------------------|

G|-------------------------------|-------------------------------|-------------------------------|
D|-------------------------------|-------------------------------|-0----0----0----0----0----0----|
A|-2----2----2----2----2----2----|-2----2----2----2----2----2----|-------------------------------|
E|-------------------------------|-------------------------------|-------------------------------|

G|-------------------------------|-------------------------------|-------------------------------|
D|-------------------------------|-------------------------------|-------------------------------|
A|-0----0----0----0----0----0----|-2----2----2----2----2----2----|-2----2----2----2----2----2----|
E|-------------------------------|-------------------------------|-------------------------------|

G|-----------------------|-----------------------|-----------------------|-----------------------|
D|-----------------------|-----------------------|-----------------------|-----------------------|
A|-2-----2----2-----2----|-2-----2----2-----2----|-2-----2----2-----2----|-2-----2----2-----2----|
E|-----------------------|-----------------------|-----------------------|-----------------------|

G|-----------------------|-----------------------|-----------------------|-----------------------|
D|-----------------------|-----------------------|-----------------------|-----------------------|
A|-2-----2----2-----2----|-2-----2----2-----2----|-2-----2----2-----2----|-2-----2----2-----2----|
E|-----------------------|-----------------------|-----------------------|-----------------------|

G|-----------------------|-----------------------|-----------------------|-----------------------|
D|-----------------------|-----------------------|-----------------------|-----------------------|
A|-2-----2----2-----2----|-2-----2----2-----2----|-2-----2----2-----2----|-2-----2----2-----2----|
E|-----------------------|-----------------------|-----------------------|-----------------------|

G|-----------------------|-----------------------|-----------------------|-----------------------|
D|-----------------------|-----------------------|-----------------------|-----------------------|
A|-2-----2----2-----2----|-2-----2----2-----2----|-2-----2----2-----2----|-2-----2----2-----2----|
E|-----------------------|-----------------------|-----------------------|-----------------------|

G|-----------------------|-----------------------|-----------------------|-----------------------|
D|-----------------------|-----------------------|-----------------------|-----------------------|
A|-2-----2----2-----2----|-2-----2----2-----2----|-2-----2----2-----2----|-2-----2----2-----2----|
E|-----------------------|-----------------------|-----------------------|-----------------------|

G|-----------------------|-----------------------|-----------------------|-----------------------|
D|-----------------------|-----------------------|-----------------------|-----------------------|
A|-2-----2----2-----2----|-2-----2----2-----2----|-2-----2----2-----2----|-2-----2----2-----2----|
E|-----------------------|-----------------------|-----------------------|-----------------------|

G|-----------------------|-----------------------|-----------------------|-----------------------|
D|-----------------------|-----------------------|-----------------------|-----------------------|
A|-2-----2----2-----2----|-2-----2----2-----2----|-2-----2----2-----2----|-2-----2----2-----2----|
E|-----------------------|-----------------------|-----------------------|-----------------------|

G|-----------------------|-----------------------|-----------------------|-----------------------|
D|-----------------------|-----------------------|-----------------------|-----------------------|
A|-2-----2----2-----2----|-2-----2----2-----2----|-2-----2----2-----2----|-2-----2----2-----2----|
E|-----------------------|-----------------------|-----------------------|-----------------------|

G|-----------------------|-----------------------|-----------------------|-----------------------|
D|-----------------------|-----------------------|-----------------------|-----------------------|
A|-2-----2----2-----2----|-2-----2----2-----2----|-2-----2----2-----2----|-2-----2----2-----2----|
E|-----------------------|-----------------------|-----------------------|-----------------------|

G|-----------------------|-----------------------|-----------------------|-----------------------|
D|-----------------------|-----------------------|-----------------------|-----------------------|
A|-2-----2----2-----2----|-2-----2----2-----2----|-2-----2----2-----2----|-2-----2----2-----2----|
E|-----------------------|-----------------------|-----------------------|-----------------------|

G|-----------------------|-----------------------|-----------------------|-----------------------|
D|-----------------------|-----------------------|-----------------------|-----------------------|
A|-2-----2----2-----2----|-2-----2----2-----2----|-2-----2----2-----2----|-2-----2----2-----2----|
E|-----------------------|-----------------------|-----------------------|-----------------------|

G|-----------------------|-----------------------|-----------------------|-----------------------|
D|-----------------------|-----------------------|-----------------------|-----------------------|
A|-2-----2----2-----2----|-2-----2----2-----2----|-2-----2----2-----2----|-2-----2----2-----2----|
E|-----------------------|-----------------------|-----------------------|-----------------------|

G|-----------------------|-----------------------|-----------------------|-----------------------|
D|-----------------------|-----------------------|-----------------------|-----------------------|
A|-2-----2----2-----2----|-2-----2----2-----2----|-2-----2----2-----2----|-2-----2----2-----2----|
E|-----------------------|-----------------------|-----------------------|-----------------------|

G|-----------------------|-----------------------|-----------------------|-----------------------|
D|-----------------------|-----------------------|-----------------------|-----------------------|
A|-2-----2----2-----2----|-2-----2----2-----2----|-2-----2----2-----2----|-2-----2----2-----2----|
E|-----------------------|-----------------------|-----------------------|-----------------------|

G|-----------------------|-----------------------|-----------------------|-----------------------|
D|-----------------------|-----------------------|-----------------------|-----------------------|
A|-2-----2----2-----2----|-2-----2----2-----2----|-2-----2----2-----2----|-2-----2----2-----2----|
E|-----------------------|-----------------------|-----------------------|-----------------------|

G|-----------------------|-----------------------|-----------------------|-----------------------|
D|-----------------------|-----------------------|-----------------------|-----------------------|
A|-2-----2----2-----2----|-2-----2----2-----2----|-2-----2----2-----2----|-2-----2----2-----2----|
E|-----------------------|-----------------------|-----------------------|-----------------------|

G|-----------------------|-----------------------|-----------------------|-----------------------|
D|-----------------------|-----------------------|-----------------------|-----------------------|
A|-0-----0----0-----0----|-0-----0----0-----0----|-0-----0----0-----0----|-0-----0----0-----0----|
E|-----------------------|-----------------------|-----------------------|-----------------------|

G|-----------------------|-----------------------|-----------------------|-----------------------|
D|-----------------------|-----------------------|-----------------------|-----------------------|
A|-0-----0----0-----0----|-0-----0----0-----0----|-0-----0----0-----0----|-0-----0----0-----0----|
E|-----------------------|-----------------------|-----------------------|-----------------------|

G|-----------------------|-----------------------|-----------------------|-----------------------|
D|-----------------------|-----------------------|-----------------------|-----------------------|
A|-0-----0----0-----0----|-0-----0----0-----0----|-0-----0----0-----0----|-0-----0----0-----0----|
E|-----------------------|-----------------------|-----------------------|-----------------------|

G|-----------------------|-----------------------|-----------------------|-----------------------|
D|-----------------------|-----------------------|-----------------------|-----------------------|
A|-0-----0----0-----0----|-0-----0----0-----0----|-2-----2----2-----2----|-2-----2----2-----2----|
E|-----------------------|-----------------------|-----------------------|-----------------------|

G|-----------------------|-----------------------|-----------------------|-----------------------|
D|-----------------------|-----------------------|-----------------------|-----------------------|
A|-2-----2----2-----2----|-2-----2----2-----2----|-2-----2----2-----2----|-2-----2----2-----2----|
E|-----------------------|-----------------------|-----------------------|-----------------------|

G|-----------------------|-----------------------|-----------------------|-----------------------|
D|-----------------------|-----------------------|-----------------------|-----------------------|
A|-2-----2----2-----2----|-2-----2----2-----2----|-2-----2----2-----2----|-2-----2----2-----2----|
E|-----------------------|-----------------------|-----------------------|-----------------------|

G|-----------------------|-----------------------|-----------------------|-----------------------|
D|-----------------------|-----------------------|-----------------------|-----------------------|
A|-2-----2----2-----2----|-2-----2----2-----2----|-2-----2----2-----2----|-2-----2----2-----2----|
E|-----------------------|-----------------------|-----------------------|-----------------------|

G|-----------------------|-----------------------|-----------------------|-----------------------|
D|-----------------------|-----------------------|-----------------------|-----------------------|
A|-2-----2----2-----2----|-2-----2----2-----2----|-2-----2----2-----2----|-2-----2----2-----2----|
E|-----------------------|-----------------------|-----------------------|-----------------------|

G|-----------------------|-----------------------|-----------------------|-----------------------|
D|-----------------------|-----------------------|-----------------------|-----------------------|
A|-2-----2----2-----2----|-2-----2----2-----2----|-2-----2----2-----2----|-2-----2----2-----2----|
E|-----------------------|-----------------------|-----------------------|-----------------------|

G|-----------------------|-----------------------|-----------------------|-----------------------|
D|-----------------------|-----------------------|-----------------------|-----------------------|
A|-2-----2----2-----2----|-2-----2----2-----2----|-2-----2----2-----2----|-2-----2----2-----2----|
E|-----------------------|-----------------------|-----------------------|-----------------------|

G|-----------------------|-----------------------|-----------------------|-----------------------|
D|-----------------------|-----------------------|-----------------------|-----------------------|
A|-2-----2----2-----2----|-2-----2----2-----2----|-2-----2----2-----2----|-2-----2----2-----2----|
E|-----------------------|-----------------------|-----------------------|-----------------------|

G|-----------------------|-----------------------|-----------------------|-----------------------|
D|-----------------------|-----------------------|-----------------------|-----------------------|
A|-2-----2----2-----2----|-2-----2----2-----2----|-2-----2----2-----2----|-2-----2----2-----2----|
E|-----------------------|-----------------------|-----------------------|-----------------------|

G|-----------------------|-----------------------|-----------------------|-----------------------|
D|-----------------------|-----------------------|-----------------------|-----------------------|
A|-2-----2----2-----2----|-2-----2----2-----2----|-2-----2----2-----2----|-2-----2----2-----2----|
E|-----------------------|-----------------------|-----------------------|-----------------------|

G|-----------------------|-----------------------|-----------------------|-----------------------|
D|-----------------------|-----------------------|-----------------------|-----------------------|
A|-2-----2----2-----2----|-2-----2----2-----2----|-2-----2----2-----2----|-2-----2----2-----2----|
E|-----------------------|-----------------------|-----------------------|-----------------------|

G|-----------------------|-----------------------|-----------------------|-----------------------|
D|-----------------------|-----------------------|-----------------------|-----------------------|
A|-2-----2----2-----2----|-2-----2----2-----2----|-2-----2----2-----2----|-2-----2----2-----2----|
E|-----------------------|-----------------------|-----------------------|-----------------------|

G|-----------------------|-----------------------|-----------------------|-----------------------|
D|-----------------------|-----------------------|-----------------------|-----------------------|
A|-2-----2----2-----2----|-2-----2----2-----2----|-2-----2----2-----2----|-2-----2----2-----2----|
E|-----------------------|-----------------------|-----------------------|-----------------------|

G|-----------------------|-----------------------|-----------------------|-----------------------|
D|-----------------------|-----------------------|-----------------------|-----------------------|
A|-2-----2----2-----2----|-2-----2----2-----2----|-2-----2----2-----2----|-2-----2----2-----2----|
E|-----------------------|-----------------------|-----------------------|-----------------------|

G|-----------------------|-----------------------|-----------------------|-----------------------|
D|-----------------------|-----------------------|-----------------------|-----------------------|
A|-2-----2----2-----2----|-2-----2----2-----2----|-2-----2----2-----2----|-2-----2----2-----2----|
E|-----------------------|-----------------------|-----------------------|-----------------------|

G|-----------------------|-----------------------|-----------------------|-----------------------|
D|-----------------------|-----------------------|-----------------------|-----------------------|
A|-2-----2----2-----2----|-2-----2----2-----2----|-2-----2----2-----2----|-2-----2----2-----2----|
E|-----------------------|-----------------------|-----------------------|-----------------------|

G|-----------------------|-----------------------|-----------------------|-----------------------|
D|-----------------------|-----------------------|-----------------------|-----------------------|
A|-2-----2----2-----2----|-2-----2----2-----2----|-0-----0----0-----0----|-0-----0----0-----0----|
E|-----------------------|-----------------------|-----------------------|-----------------------|

G|-----------------------|-----------------------|-----------------------|-----------------------|
D|-----------------------|-----------------------|-----------------------|-----------------------|
A|-0-----0----0-----0----|-0-----0----0-----0----|-0-----0----0-----0----|-0-----0----0-----0----|
E|-----------------------|-----------------------|-----------------------|-----------------------|

G|-----------------------|-----------------------|-----------------------|-----------------------|
D|-----------------------|-----------------------|-----------------------|-----------------------|
A|-0-----0----0-----0----|-0-----0----0-----0----|-0-----0----0-----0----|-0-----0----0-----0----|
E|-----------------------|-----------------------|-----------------------|-----------------------|

G|-----------------------|-----------------------|-----------------------|-----------------------|
D|-----------------------|-----------------------|-----------------------|-----------------------|
A|-0-----0----0-----0----|-0-----0----0-----0----|-0-----0----0-----0----|-0-----0----0-----0----|
E|-----------------------|-----------------------|-----------------------|-----------------------|

G|-----------------------|-----------------------|-----------------------|-----------------------|
D|-----------------------|-----------------------|-----------------------|-----------------------|
A|-0-----0----0-----0----|-0-----0----0-----0----|-0-----0----0-----0----|-0-----0----0-----0----|
E|-----------------------|-----------------------|-----------------------|-----------------------|

G|-----------------------|-----------------------|-----------------------|-----------------------|
D|-----------------------|-----------------------|-----------------------|-----------------------|
A|-0-----0----0-----0----|-0-----0----0-----0----|-2-----2----2-----2----|-2-----2----2-----2----|
E|-----------------------|-----------------------|-----------------------|-----------------------|

G|-----------------------|-----------------------|-----------------------|-----------------------|
D|-----------------------|-----------------------|-----------------------|-----------------------|
A|-2-----2----2-----2----|-2-----2----2-----2----|-2-----2----2-----2----|-2-----2----2-----2----|
E|-----------------------|-----------------------|-----------------------|-----------------------|

G|-----------------------|-----------------------|-----------------------|-----------------------|
D|-----------------------|-----------------------|-----------------------|-----------------------|
A|-2-----2----2-----2----|-2-----2----2-----2----|-2-----2----2-----2----|-2-----2----2-----2----|
E|-----------------------|-----------------------|-----------------------|-----------------------|

G|-----------------------|-----------------------|-----------------------|-----------------------|
D|-----------------------|-----------------------|-----------------------|-----------------------|
A|-2-----2----2-----2----|-2-----2----2-----2----|-2-----2----2-----2----|-2-----2----2-----2----|
E|-----------------------|-----------------------|-----------------------|-----------------------|

G|-----------------------|-----------------------|-----------------------|-----------------------|
D|-----------------------|-----------------------|-----------------------|-----------------------|
A|-2-----2----2-----2----|-2-----2----2-----2----|-2-----2----2-----2----|-2-----2----2-----2----|
E|-----------------------|-----------------------|-----------------------|-----------------------|

G|-----------------------|-----------------------|-----------------------|-----------------------|
D|-----------------------|-----------------------|-----------------------|-----------------------|
A|-2-----2----2-----2----|-2-----2----2-----2----|-2-----2----2-----2----|-2-----2----2-----2----|
E|-----------------------|-----------------------|-----------------------|-----------------------|

G|-----------------------|-----------------------|-----------------------|-----------------------|
D|-----------------------|-----------------------|-----------------------|-----------------------|
A|-2-----2----2-----2----|-2-----2----2-----2----|-2-----2----2-----2----|-2-----2----2-----2----|
E|-----------------------|-----------------------|-----------------------|-----------------------|

G|-----------------------|-----------------------|-----------------------|-----------------------|
D|-----------------------|-----------------------|-----------------------|-----------------------|
A|-2-----2----2-----2----|-2-----2----2-----2----|-2-----2----2-----2----|-2-----2----2-----2----|
E|-----------------------|-----------------------|-----------------------|-----------------------|

G|-----------------------|-----------------------|-----------------------|-----------------------|
D|-----------------------|-----------------------|-----------------------|-----------------------|
A|-2-----2----2-----2----|-2-----2----2-----2----|-2-----2----2-----2----|-2-----2----2-----2----|
E|-----------------------|-----------------------|-----------------------|-----------------------|

G|-----------------------|-----------------------|-----------------------|-----------------------|
D|-----------------------|-----------------------|-----------------------|-----------------------|
A|-2-----2----2-----2----|-2-----2----2-----2----|-2-----2----2-----2----|-2-----2----2-----2----|
E|-----------------------|-----------------------|-----------------------|-----------------------|

G|-----------------------|-----------------------|-----------------------|-----------------------|
D|-----------------------|-----------------------|-----------------------|-----------------------|
A|-2-----2----2-----2----|-2-----2----2-----2----|-2-----2----2-----2----|-2-----2----2-----2----|
E|-----------------------|-----------------------|-----------------------|-----------------------|

G|-----------------------|-----------------------|-----------------------|-----------------------|
D|-----------------------|-----------------------|-----------------------|-----------------------|
A|-2-----2----2-----2----|-2-----2----2-----2----|-2-----2----2-----2----|-2-----2----2-----2----|
E|-----------------------|-----------------------|-----------------------|-----------------------|

G|-----------------------|-----------------------|-----------------------|-----------------------|
D|-----------------------|-----------------------|-----------------------|-----------------------|
A|-2-----2----2-----2----|-2-----2----2-----2----|-2-----2----2-----2----|-2-----2----2-----2----|
E|-----------------------|-----------------------|-----------------------|-----------------------|

G|-----------------------|-----------------------|-----------------------|-----------------------|
D|-----------------------|-----------------------|-----------------------|-----------------------|
A|-2-----2----2-----2----|-2-----2----2-----2----|-2-----2----2-----2----|-2-----2----2-----2----|
E|-----------------------|-----------------------|-----------------------|-----------------------|

G|-----------------------|-----------------------|-----------------------|-----------------------|
D|-----------------------|-----------------------|-----------------------|-----------------------|
A|-2-----2----2-----2----|-2-----2----2-----2----|-2-----2----2-----2----|-2-----2----2-----2----|
E|-----------------------|-----------------------|-----------------------|-----------------------|

G|-----------------------|-----------------------|-----------------------|-----------------------|
D|-----------------------|-----------------------|-----------------------|-----------------------|
A|-2-----2----2-----2----|-2-----2----2-----2----|-2-----2----2-----2----|-2-----2----2-----2----|
E|-----------------------|-----------------------|-----------------------|-----------------------|

G|-----------------------|---------|---------|---------|---------|---------|---------|
D|-----------------------|-%-------|-%-------|-%-------|-%-------|-%-------|-%-------|
A|-2-----2----2-----2----|-%-------|-%-------|-%-------|-%-------|-%-------|-%-------|
E|-----------------------|---------|---------|---------|---------|---------|---------|

G|---------|---------|---------|---------|---------|---------|
D|-%-------|-%-------|-%-------|-%-------|-%-------|-%-------|
A|-%-------|-%-------|-%-------|-%-------|-%-------|-%-------|
E|---------|---------|---------|---------|---------|---------|
Pink Floyd - One of these Days
Pink Floyd - One of these Days.gp3