Pink Floyd - Pigs 3 different ones Bass intro

Pink Floyd



Title: Pigs Three different ones Bass intro
Album: 
Artist: Pink Floyd
Author: saldex

Track 1: Wright
E|------0----2----3----2----0----2----3----|------0----2----3----2----0----2----3----|
B|-0---------------------------------------|-0---------------------------------------|
G|-----------------------------------------|-----------------------------------------|
D|-----------------------------------------|-----------------------------------------|
A|-----------------------------------------|-----------------------------------------|
E|-----------------------------------------|-----------------------------------------|

E|------0----2----3----2----0----2----3----|------0----2----3----2----0----2----3----|
B|-1---------------------------------------|-1---------------------------------------|
G|-----------------------------------------|-----------------------------------------|
D|-----------------------------------------|-----------------------------------------|
A|-----------------------------------------|-----------------------------------------|
E|-----------------------------------------|-----------------------------------------|

E|------0----2----3----2----0----2----3----|------0----2----3----2----0----2----3----|
B|-0---------------------------------------|-0---------------------------------------|
G|-----------------------------------------|-----------------------------------------|
D|-----------------------------------------|-----------------------------------------|
A|-----------------------------------------|-----------------------------------------|
E|-----------------------------------------|-----------------------------------------|

E|------0----2----3----2----0----2----3----|------0----2----3----2----0----2----3----|
B|-1---------------------------------------|-1---------------------------------------|
G|-----------------------------------------|-----------------------------------------|
D|-----------------------------------------|-----------------------------------------|
A|-----------------------------------------|-----------------------------------------|
E|-----------------------------------------|-----------------------------------------|

E|------0----2----3----2----0----2----3----|------0----2----3----2----0----2----3----|
B|-0---------------------------------------|-0---------------------------------------|
G|-----------------------------------------|-----------------------------------------|
D|-----------------------------------------|-----------------------------------------|
A|-----------------------------------------|-----------------------------------------|
E|-----------------------------------------|-----------------------------------------|

E|------0----2----3----2----0----2----3----|------0----2----3----2----0----2----3----|
B|-1---------------------------------------|-1---------------------------------------|
G|-----------------------------------------|-----------------------------------------|
D|-----------------------------------------|-----------------------------------------|
A|-----------------------------------------|-----------------------------------------|
E|-----------------------------------------|-----------------------------------------|

E|------0----2----3----2----0----2----3----|------0----2----3----2----0----2----3----|
B|-0---------------------------------------|-0---------------------------------------|
G|-----------------------------------------|-----------------------------------------|
D|-----------------------------------------|-----------------------------------------|
A|-----------------------------------------|-----------------------------------------|
E|-----------------------------------------|-----------------------------------------|

E|------0----2----3----2----0----2----3----|------0----2----3----2----0----2----3----|
B|-1---------------------------------------|-1---------------------------------------|
G|-----------------------------------------|-----------------------------------------|
D|-----------------------------------------|-----------------------------------------|
A|-----------------------------------------|-----------------------------------------|
E|-----------------------------------------|-----------------------------------------|

E|---------|
B|---------|
G|-%-------|
D|-%-------|
A|---------|
E|---------|
Pink Floyd - Pigs 3 different ones Bass intro
Pink Floyd - Pigs 3 different ones Bass intro.gp3