Pink Floyd - Pigs On The Wing (2)

Pink Floyd



Title: Pigs on the wing part 1
Album: Animals
Artist: Pink Floyd
Author: Roger Waters

Track 1: Guitar
E|-3----------3---------3----3-----|------3----3----3----0----0----0----3----|-3----------3---------3----3-----|
B|-3-----3----3---------3----3-----|------3----3----3----1----1----1----3----|-3-----3----3---------3----3-----|
G|-0-----0----0---------0----0-----|------0----0----0----0----0----0----0----|-0-----0----0---------0----0-----|
D|-0-----0---------0----0----0-----|-0----0----0----0----2----2----2----0----|-0-----0---------0----0----0-----|
A|-2---------------2---------2-----|-2---------2----2----3----3----3----2----|-2---------------2---------2-----|
E|-3---------------3---------3-----|-3---------3----3-------------------3----|-3---------------3---------3-----|

E|------3----3----3----0----0----0----3----|-3----------3---------3----3-----|------3----3----3----0----0----0----3----|
B|------3----3----3----1----1----1----3----|-3-----3----3---------3----3-----|------3----3----3----1----1----1----3----|
G|------0----0----0----0----0----0----0----|-0-----0----0---------0----0-----|------0----0----0----0----0----0----0----|
D|-0----0----0----0----2----2----2----0----|-0-----0---------0----0----0-----|-0----0----0----0----2----2----2----0----|
A|-2---------2----2----3----3----3----2----|-2---------------2---------2-----|-2---------2----2----3----3----3----2----|
E|-3---------3----3-------------------3----|-3---------------3---------3-----|-3---------3----3-------------------3----|

E|-3----------3---------3----3-----|------3---------3----3----3----3-----|-0----------0---------0----0-----|
B|-3-----3----3---------3----3-----|------3---------3----3----3----3-----|-1----------1---------1----1-----|
G|-0-----0----0---------0----0-----|------0---------0----0----0----0-----|-0----------0---------0----0-----|
D|-0-----0---------0----0----0-----|-0----0----0----0----0----0----0-----|-2-----2---------2----2----2-----|
A|-2---------------2---------2-----|-2----2----2-------------------2-----|-3-----3---------3----3----3-----|
E|-3---------------3---------3-----|-3----3----3-------------------3-----|-3-----3---------3----3----3-----|

E|-0----0---------0----0----0----0----0----|-0----------0---------0----0-----|-0----0----0----0----0----0----0----0----|
B|-1----1---------1----1----1----1----1----|-1----------1---------1----1-----|-1----1----1----1----1----1----0----0----|
G|-0----0---------0----0----0----0----0----|-0----------0---------0----0-----|-0----0----0----0----0----0----0----0----|
D|-----------2----2----3----3----3---------|-2-----2---------2----2----2-----|---------------------2----2--------------|
A|-----------3----3------------------------|-3-----3---------3----3----3-----|---------------------3----3--------------|
E|-----------3----3------------------------|-3-----3---------3----3----3-----|---------------------3----3--------------|

E|-3----------3---------3----3-----|------3----3----3----3----3----3----3----|-3----------3---------3----3-----|
B|-3-----3----3---------3----3-----|------3----3----3----3----3----3----3----|-3-----3----3---------3----3-----|
G|-0-----0----0---------0----0-----|------0----0----0----0----0----0----0----|-0-----0----0---------0----0-----|
D|-0-----0---------0----0----0-----|-0----0----0----0----0----0----0----0----|-0-----0---------0----0----0-----|
A|-2---------------2---------2-----|-2---------2----2----3----3----3----2----|-2---------------2---------2-----|
E|-3---------------3---------3-----|-3---------3----3-------------------3----|-3---------------3---------3-----|

E|------3---------3----3----3----3----3----|-0----------0---------0----0-----|-0----0---------0----0----0----0----0----|
B|------3---------3----3----3----3----3----|-1----------1---------1----1-----|-1----1---------1----1----1----1----1----|
G|------0---------0----0----0----0----0----|-0----------0---------0----0-----|-0----0---------0----0----0----0----0----|
D|-0----0----0----0----0----0----0----0----|-2-----2---------2----2----2-----|-----------2----2----3----3----3---------|
A|-2----2----2-------------------2----2----|-3-----3---------3----3----3-----|-----------3----3------------------------|
E|-3----3----3-------------------3----3----|-3-----3---------3----3----3-----|-----------3----3------------------------|

E|-0----------0---------0----0-----|-0----0----0----0----0----0----0----0----|-3----------3---------3----3-----|
B|-1----------1---------1----1-----|-1----1----1----1----1----1----0----0----|-3-----3----3---------3----3-----|
G|-0----------0---------0----0-----|-0----0----0----0----0----0----0----0----|-0-----0----0---------0----0-----|
D|-2-----2---------2----2----2-----|---------------------2----2--------------|-0-----0---------0----0----0-----|
A|-3-----3---------3----3----3-----|---------------------3----3--------------|-2---------------2---------2-----|
E|-3-----3---------3----3----3-----|---------------------3----3--------------|-3---------------3---------3-----|

E|------3----3----3----3----3----3----3----|-3----------3---------3----3-----|------3----3----3----3----3----3-----|
B|------3----3----3----3----3----3----3----|-3-----3----3---------3----3-----|------3----3----3----3----3----3-----|
G|------0----0----0----0----0----0----0----|-0-----0----0---------0----0-----|------0----0----0----0----0----0-----|
D|-0----0----0----0----0----0----0----0----|-0-----0---------0----0----0-----|-0----0----0----0----0----0----0-----|
A|-2---------2----2----3----3----3----2----|-2---------------2---------2-----|-2---------2----2--------------2-----|
E|-3---------3----3-------------------3----|-3---------------3---------3-----|-3---------3----3--------------3-----|

E|-0-----0----0----0----0----0-----|------0----------0----0----------|-3----3----3----3-----3----3-----|
B|-2-----2----2----2----2----2-----|------2----0-----2----2----0-----|-2----2----2----2-----2----2-----|
G|-2-----2----2----2----2----2-----|------2----0-----2----2----0-----|-2----2----2----2-----2----2-----|
D|-2-----2----2----2----2----2-----|-2----2----0-----2----2----0-----|-2----2----2----2-----2----2-----|
A|-0-----0----0----0----0----0-----|-0----0----------0----0----------|-0----0----0----0-----0----0-----|
E|-0-----0----0----0----0----0-----|-0----0----------0----0----------|-0----0----0----0-----0----0-----|

E|-3----3----3----3----3----3----3-----|-3----------3----3---------------|-0-----0-----2-----2----2----|
B|-2----2----2----2----2----2----2-----|-3-----3----3----3-----0----0----|-1-----1-----3-----3----3----|
G|-2----2----2----2----2----2----2-----|-0-----0----0----0-----0----0----|-0-----0-----2-----2----2----|
D|-2----2----2----2----2----2----2-----|-0-----0---------0-----0----0----|-2-----2-----0---------------|
A|-0----0----0----0----0----0----0-----|-2---------------2---------------|-3-----3-----0---------------|
E|-0----0----0----0----0----0----0-----|-3---------------3---------------|-3-----3---------------------|

E|-2---------3-----3----3----3----3----|-3-----3----3----3----3----0-----|-0----0----0----0----1-----1----1----|
B|-3----0----3-----3----3----3----3----|-3-----3----3----3----3----1-----|-1----1----1----0----1-----1----1----|
G|-2----0----0-----0----0----0----0----|-0-----0----0----0----0----2-----|-2----2----2----0----2-----2----2----|
D|-0----0----0-----0----0----0----0----|-0-----0----0----0----0----2-----|-2----2----2---------3-----3----3----|
A|-----------2-----2----2----2----2----|-2-----2----2----2----2----0-----|-0----0----0---------3-----3----3----|
E|-----------3-----3----3----3----3----|-3-----3----3----3----3----0-----|-0----0----0---------1-----1----1----|

E|-1----0----0-----0----0----0----0----|-1-----1----1----1----0----0-----|-0----0----0----0----0-----0----0----|
B|-1----0----1-----1----1----1----0----|-1-----1----1----1----0----1-----|-1----1----1----1----1-----1----1----|
G|-2----0----2-----2----2----2----0----|-2-----2----2----2----0----0-----|-0----0----0----0----0-----0----0----|
D|-3---------2-----2----2----2---------|-3-----3----3----3---------2-----|-2----2----2----2----2-----2----2----|
A|-3---------0-----0----0----0---------|-3-----3----3----3---------3-----|-3----3----3----3----3-----3----3----|
E|-1---------0-----0----0----0---------|-1-----1----1----1---------3-----|-3----3----3----3----3-----3----3----|

E|-0----0----0-----0----0----0----0----|-0-----0----0----0----0----2-----|-2----2----2----2----2-----2----2----|
B|-1----0----1-----1----1----1----1----|-1-----1----1----1----0----3-----|-3----3----3----3----3-----3----3----|
G|-0----0----2-----2----2----2----2----|-2-----2----2----2----0----2-----|-2----2----2----2----2-----2----2----|
D|-2---------2-----2----2----2----2----|-2-----2----2----2---------0-----|-0----0----0----0----0-----0----0----|
A|-3---------0-----0----0----0----0----|-0-----0----0----0---------0-----|-0----0----0----0----0-----0----0----|
E|-3---------0-----0----0----0----0----|-0-----0----0----0---------------|-------------------------------------|

E|-3----3----2-----2----2----2----2----|-2-----2----2----2----2----3-----|-3----3----3----3----3-----3----3----|
B|-3----3----3-----3----3----3----3----|-3-----3----3----3----3----3-----|-3----3----3----3----3-----3----3----|
G|-2----2----2-----2----2----2----2----|-2-----2----2----2----2----0-----|-0----0----0----0----0-----0----0----|
D|-0----0----0-----0----0----0----0----|-0-----0----0----0----0----0-----|-0----0----0----0----0-----0----0----|
A|-0----0----0-----0----0----0----0----|-0-----0----0----0----0----2-----|-2----2----2----2----2-----2----2----|
E|-------------------------------------|---------------------------3-----|-3----3----3----3----3-----3----3----|

E|-3----3----3-------|
B|-3----3----3-------|
G|-0----0----0-------|
D|-0----0----0-------|
A|-2----2----2-------|
E|-3----3----3-------|
Pink Floyd - Pigs On The Wing (2)
Pink Floyd - Pigs On The Wing (2).gp4