Pink Floyd - Pink Floyd - Brain Damage

Pink Floyd



Title: Brain Damage
Album: The Dark Side Of The Moon
Artist: Pink Floyd
Author: Roger Waters

Track 1: Guitar (Gilmour)
E|-3----|-2----------2-----2----------2--------|-2----------2-----2-------------2-----|
B|-2----|-3-----3----------3-----3-------------|-3-----3----------3---------3---------|
G|-3----|-2----------------2-------------------|-2----------------2-----2-------------|
D|-2----|---------------------------------0----|--------------------------------------|
A|------|--------------------------------------|--------------------------------------|
E|------|--------------------------------------|--------------------------------------|

E|-2----------2-----2-------------2-----|-2----------2-----2-------------2-----|-2----------2-----2-------------2-----|
B|-3-----3----------3---------3---------|-3-----3----------3---------3---------|-3-----3----------3---------3---------|
G|-2----------------2-----2-------------|-2----------------2-----2-------------|-2----------------2-----2-------------|
D|--------------------------------------|--------------------------------------|--------------------------------------|
A|--------------------------------------|--------------------------------------|--------------------------------------|
E|--------------------------------------|--------------------------------------|--------------------------------------|

E|-1----------1-----1----------1-----------|-2----------2-----2----------2-----|-1----------1-----1----------1-----------|
B|-0-----0----------0-----0----------------|-3-----3----------3-----3----------|-0-----0----------0-----0----------------|
G|-0----------------0--------------0---2---|-2----------------2----------------|-0----------------0--------------0---2---|
D|-----------------------------------------|-----------------------------------|-----------------------------------------|
A|-----------------------------------------|-----------------------------------|-----------------------------------------|
E|-----------------------------------------|-----------------------------------|-----------------------------------------|

E|-2----------2-----2----------2-----|-4----------4-----4----------4-----|-3----------3-----3----------3-----|
B|-3-----3----------3-----3----------|-5-----5----------5-----5----------|-2-----2----------2-----2----------|
G|-2----------------2----------------|-4----------------4----------------|-2----------------2----------------|
D|-----------------------------------|-----------------------------------|-2----------------2----------------|
A|-----------------------------------|-----------------------------------|-----------------------------------|
E|-----------------------------------|-----------------------------------|-----------------------------------|

E|-2----------2-----2---0------------0-----------|-2----------2-----2-------------2-----|
B|-3-----3-------------------3-----------3-------|-3-----3----------3---------3---------|
G|-2-----------------------------2-----------2---|-2----------------2-----2-------------|
D|-----------------------------------------------|--------------------------------------|
A|-----------------------------------------------|--------------------------------------|
E|-----------------------------------------------|--------------------------------------|

E|-1----------1-----1----------1-----------|-2----------2-----2----------2-----|-1----------1-----1----------1-----------|
B|-0-----0----------0-----0----------------|-3-----3----------3-----3----------|-0-----0----------0-----0----------------|
G|-0----------------0--------------0---2---|-2----------------2----------------|-0----------------0--------------0---2---|
D|-----------------------------------------|-----------------------------------|-----------------------------------------|
A|-----------------------------------------|-----------------------------------|-----------------------------------------|
E|-----------------------------------------|-----------------------------------|-----------------------------------------|

E|-2----------2-----2----------2-----|-4----------4-----4----------4-----|-3----------3-----3----------3-----|
B|-3-----3----------3-----3----------|-5-----5----------5-----5----------|-2-----2----------2-----2----------|
G|-2----------------2----------------|-4----------------4----------------|-2----------------2----------------|
D|-----------------------------------|-----------------------------------|-2----------------2----------------|
A|-----------------------------------|-----------------------------------|-----------------------------------|
E|-----------------------------------|-----------------------------------|-----------------------------------|

E|-2----------2----0------------0----------------|-2------2--------------|--------------------------------------------|
B|-3-----3--------------3------------3-----------|-1------1--------------|------------------------------------0-------|
G|-2------------------------2------------2---2---|-2------2--------------|-----------0----------------------------0---|
D|-----------------------------------------------|-0------0--------------|------0----0----0--------------0------------|
A|-----------------------------------------------|-----------------------|--------------------------2-----------------|
E|-----------------------------------------------|---------------0---2---|-3-------------------3----------------------|

E|---------------------------------|--------------------------------------------|---------------------------------|
B|-----------2----------------2----|--------------1-----------------------------|-----------0-----------0---------|
G|-----------2------0----2---------|---------0---------0---------0---------0----|------0----0------0---------0----|
D|------2----2---------------------|-----------------------------2----2----2----|---------------------------------|
A|-0----0--------------------------|-0---3------------------3----3----3----3----|---------------------------------|
E|---------------------------------|--------------------------------------------|-3-------------------------------|

E|--------------------------------------------|---------------------------------|--------------------------------------------|
B|------------------------------------0-------|-----------2----------------2----|--------------1-----------------------------|
G|-----------0----------------------------0---|-----------2------0----2---------|---------0---------0---------0---------0----|
D|------0----0----0--------------0------------|------2----2---------------------|-----------------------------2----2----2----|
A|--------------------------2-----------------|-0----0--------------------------|-0---3------------------3----3----3----3----|
E|-3-------------------3----------------------|---------------------------------|--------------------------------------------|

E|-----------------------------------------|-----------------------------------------|
B|-----------0-------------------0---------|-----------3-------------------5---------|
G|------0----0----0---------0---------0----|------4---------4---------4---------4----|
D|-----------------------------------------|-----------------------------------------|
A|-----------------------------------------|-2---------------------------------------|
E|-3-------------------3-------------------|---------------------0-------------------|

E|-----------5----------------|-2----------2-----2-------------2-----|-1----------1-----1----------1-----------|
B|------5---------5------5----|-3-----3----------3---------3---------|-0-----0----------0-----0----------------|
G|----------------------------|-2----------------2-----2-------------|-0----------------0--------------0---2---|
D|----------------------------|--------------------------------------|-----------------------------------------|
A|-0--------------------------|--------------------------------------|-----------------------------------------|
E|----------------------------|--------------------------------------|-----------------------------------------|

E|-2----------2-----2----------2-----|-1----------1-----1----------1-----------|-2----------2-----2----------2-----|
B|-3-----3----------3-----3----------|-0-----0----------0-----0----------------|-3-----3----------3-----3----------|
G|-2----------------2----------------|-0----------------0--------------0---2---|-2----------------2----------------|
D|-----------------------------------|-----------------------------------------|-----------------------------------|
A|-----------------------------------|-----------------------------------------|-----------------------------------|
E|-----------------------------------|-----------------------------------------|-----------------------------------|

E|-4----------4-----4----------4-----|-3----------3-----3----------3-----|-2----------2-----2----------2-----|
B|-5-----5----------5-----5----------|-2-----2----------2-----2----------|-3-----3----------3-----3----------|
G|-4----------------4----------------|-2----------------2----------------|-2----------------2----------------|
D|-----------------------------------|-2----------------2----------------|-----------------------------------|
A|-----------------------------------|-----------------------------------|-----------------------------------|
E|-----------------------------------|-----------------------------------|-----------------------------------|

E|-2----------2-----2----------2-----|-4----------4-----4----------4-----|-3----------3-----3----------3-----|
B|-3-----3----------3-----3----------|-5-----5----------5-----5----------|-2-----2----------2-----2----------|
G|-2----------------2----------------|-4----------------4----------------|-2----------------2----------------|
D|-----------------------------------|-----------------------------------|-2----------------2----------------|
A|-----------------------------------|-----------------------------------|-----------------------------------|
E|-----------------------------------|-----------------------------------|-----------------------------------|

E|-2----------2-----2---0------------0-----------|-2------2--------------|--------------------------------------------|
B|-3-----3-------------------3-----------3-------|-1------1--------------|------------------------------------0-------|
G|-2-----------------------------2-----------2---|-2------2--------------|-----------0----------------------------0---|
D|-----------------------------------------------|-0------0--------------|------0----0----0--------------0------------|
A|-----------------------------------------------|-----------------------|--------------------------2-----------------|
E|-----------------------------------------------|---------------0---2---|-3-------------------3----------------------|

E|---------------------------------|--------------------------------------------|---------------------------------|
B|-----------2----------------2----|--------------1-----------------------------|-----------0-----------0---------|
G|-----------2------0----2---------|---------0---------0---------0---------0----|------0----0------0---------0----|
D|------2----2---------------------|-----------------------------2----2----2----|---------------------------------|
A|-0----0--------------------------|-0---3------------------3----3----3----3----|---------------------------------|
E|---------------------------------|--------------------------------------------|-3-------------------------------|

E|--------------------------------------------|---------------------------------|--------------------------------------------|
B|------------------------------------0-------|-----------2----------------2----|--------------1-----------------------------|
G|-----------0----------------------------0---|-----------2------0----2---------|---------0---------0---------0---------0----|
D|------0----0----0--------------0------------|------2----2---------------------|-----------------------------2----2----2----|
A|--------------------------2-----------------|-0----0--------------------------|-0---3------------------3----3----3----3----|
E|-3-------------------3----------------------|---------------------------------|--------------------------------------------|

E|-----------------------------------------|-----------------------------------------|
B|-----------0-------------------0---------|-----------3-------------------5---------|
G|------0----0----0---------0---------0----|------4---------4---------4---------4----|
D|-----------------------------------------|-----------------------------------------|
A|-----------------------------------------|-2---------------------------------------|
E|-3-------------------3-------------------|---------------------0-------------------|

E|-----------5----------------|-2----------2-----2-------------2-----|-1----------1-----1----------1-----------|
B|------5---------5------5----|-3-----3----------3---------3---------|-0-----0----------0-----0----------------|
G|----------------------------|-2----------------2-----2-------------|-0----------------0--------------0---2---|
D|----------------------------|--------------------------------------|-----------------------------------------|
A|-0--------------------------|--------------------------------------|-----------------------------------------|
E|----------------------------|--------------------------------------|-----------------------------------------|

E|-2----------2-----2----------2-----|-1----------1-----1----------1-----------|-2----------2-----2----------2-----|
B|-3-----3----------3-----3----------|-0-----0----------0-----0----------------|-3-----3----------3-----3----------|
G|-2----------------2----------------|-0----------------0--------------0---2---|-2----------------2----------------|
D|-----------------------------------|-----------------------------------------|-----------------------------------|
A|-----------------------------------|-----------------------------------------|-----------------------------------|
E|-----------------------------------|-----------------------------------------|-----------------------------------|

E|-4----------4-----4----------4-----|-3----------3-----3----------3-----|-2----------2-----2---0------------0-----------|
B|-5-----5----------5-----5----------|-2-----2----------2-----2----------|-3-----3-------------------3-----------3-------|
G|-4----------------4----------------|-2----------------2----------------|-2-----------------------------2-----------2---|
D|-----------------------------------|-2----------------2----------------|-----------------------------------------------|
A|-----------------------------------|-----------------------------------|-----------------------------------------------|
E|-----------------------------------|-----------------------------------|-----------------------------------------------|

E|-2----------2-----2----------2-----|-4----------4-----4----------4-----|-3----------3-----3----------3-----|
B|-3-----3----------3-----3----------|-5-----5----------5-----5----------|-2-----2----------2-----2----------|
G|-2----------------2----------------|-4----------------4----------------|-2----------------2----------------|
D|-----------------------------------|-----------------------------------|-2----------------2----------------|
A|-----------------------------------|-----------------------------------|-----------------------------------|
E|-----------------------------------|-----------------------------------|-----------------------------------|

E|-2----------2-----2---0------------0-----------|
B|-3-----3-------------------3-----------3-------|
G|-2-----------------------------2-----------2---|
D|-----------------------------------------------|
A|-----------------------------------------------|
E|-----------------------------------------------|
Pink Floyd - Pink Floyd - Brain Damage
Pink Floyd - Pink Floyd - Brain Damage.gp4.gp4