Pink Floyd - Pink Floyd - See Emily Play

Pink Floyd



Title: See Emily Play
Album: Single
Artist: Pink Floyd
Author: Syd Barrett

Track 1: Guitar 1 (Barrett)
E|-0-----|-12----12------|-12---12-----0------|---------|---------|---------|---------|
B|-0-----|-12----12------|-12---12-----0------|---------|---------|---------|---------|
G|-0-----|-12----12------|-12---12-----0------|-%-------|-%-------|-%-------|-%-------|
D|-0-----|-12----12------|-12---12-----0------|-%-------|-%-------|-%-------|-%-------|
A|-------|---------------|--------------------|---------|---------|---------|---------|
E|-------|---------------|--------------------|---------|---------|---------|---------|

E|---------|---------|--------|--------------12----|-19------|-19---19-----------|---------|
B|---------|---------|--------|--------------------|---------|-------------------|---------|
G|-%-------|-%-------|-%------|-%------%-----------|---------|--------------%----|-%-------|
D|-%-------|-%-------|-%------|-%------%-----------|---------|--------------%----|-%-------|
A|---------|---------|--------|--------------------|---------|-------------------|---------|
E|---------|---------|--------|--------------------|---------|-------------------|---------|

E|---------|-3----3----3-----------------|---------|---------|---------|---------|---------|
B|---------|-3----3----3-----------------|---------|---------|---------|---------|---------|
G|-%-------|-4----4----4----%------------|-%-------|-%-------|-%-------|-%-------|-%-------|
D|-%-------|-5----5----5----%------------|-%-------|-%-------|-%-------|-%-------|-%-------|
A|---------|-----------------------------|---------|---------|---------|---------|---------|
E|---------|-----------------------10----|---------|---------|---------|---------|---------|

E|---------|---------|---------|--------|---------|-3-------|-12-----------------|---------|
B|---------|---------|---------|--------|---------|-3-------|-12-----------------|---------|
G|-%-------|-%-------|-%-------|-%------|-%-------|-4-------|-13---%------%------|-%-------|
D|-%-------|-%-------|-%-------|-%------|-%-------|-5-------|-14---%------%------|-%-------|
A|---------|---------|---------|--------|---------|-5-------|-14-----------------|---------|
E|---------|---------|---------|--------|---------|-3-------|-12-----------------|---------|

E|---------|---------|--------|--------------12----|-19------|-19---19-----------|---------|
B|---------|---------|--------|--------------------|---------|-------------------|---------|
G|-%-------|-%-------|-%------|-%------%-----------|---------|--------------%----|-%-------|
D|-%-------|-%-------|-%------|-%------%-----------|---------|--------------%----|-%-------|
A|---------|---------|--------|--------------------|---------|-------------------|---------|
E|---------|---------|--------|--------------------|---------|-------------------|---------|

E|---------|-3----3----3-----------------|---------|---------|---------|---------|---------|
B|---------|-3----3----3-----------------|---------|---------|---------|---------|---------|
G|-%-------|-4----4----4----%------------|-%-------|-%-------|-%-------|-%-------|-%-------|
D|-%-------|-5----5----5----%------------|-%-------|-%-------|-%-------|-%-------|-%-------|
A|---------|-----------------------------|---------|---------|---------|---------|---------|
E|---------|-----------------------10----|---------|---------|---------|---------|---------|

E|---------|---------|---------|--------|---------|-3----3----3-----------|--------------------|
B|---------|---------|---------|--------|---------|-3----3----3-----------|--------------------|
G|-%-------|-%-------|-%-------|-%------|-%-------|-4----4----4----%------|-%------------------|
D|-%-------|-%-------|-%-------|-%------|-%-------|-5----5----5----%------|-%-----5------------|
A|---------|---------|---------|--------|---------|-----------------------|--------------------|
E|---------|---------|---------|--------|---------|-----------------------|-------------3------|

E|-------------------------|-------------------------------------------|---------------|
B|-------------------------|-------------------------------------------|---------------|
G|-------------------------|-------------------------------------------|---------------|
D|------------------7------|-7----0---5---7---5---5---7-----------5----|-7------7------|
A|-------------------------|--------------------------------0----------|-0------0------|
E|-3----3----5-------------|-------------------------------------------|---------------|

E|--------------------|------12----15----15-----|-12---10---12---10--10--12--10--12--10--12--10--12--10--|
B|--------------10----|-15----------------------|--------------------------------------------------------|
G|--------12----------|-------------------------|--------------------------------------------------------|
D|-7------------------|-------------------------|--------------------------------------------------------|
A|--------------------|-------------------------|--------------------------------------------------------|
E|--------------------|-------------------------|--------------------------------------------------------|

E|-15-----15---15---15----|---------------|---------|--------------5---------|---------|
B|------------------------|-12-----12-----|-8-------|-8-----8------------5---|-8-------|
G|------------------------|---------------|---------|------------------------|---------|
D|------------------------|---------------|---------|------------------------|---------|
A|------------------------|---------------|---------|------------------------|---------|
E|------------------------|---------------|---------|------------------------|---------|

E|-5---------5---5---5---5---5-------------------|-5----5------------|---------|---------|
B|------8-------------------------8----8----8----|-8----8------------|---------|---------|
G|-----------------------------------------------|--------------%----|-%-------|-%-------|
D|-----------------------------------------------|--------------%----|-%-------|-%-------|
A|-----------------------------------------------|-------------------|---------|---------|
E|-----------------------------------------------|-------------------|---------|---------|

E|---------|---------|--------|--------------12----|-19------|-19---19-----------|---------|
B|---------|---------|--------|--------------------|---------|-------------------|---------|
G|-%-------|-%-------|-%------|-%------%-----------|---------|--------------%----|-%-------|
D|-%-------|-%-------|-%------|-%------%-----------|---------|--------------%----|-%-------|
A|---------|---------|--------|--------------------|---------|-------------------|---------|
E|---------|---------|--------|--------------------|---------|-------------------|---------|

E|---------|-3----3----3-----------------|---------|---------|---------|---------|---------|
B|---------|-3----3----3-----------------|---------|---------|---------|---------|---------|
G|-%-------|-4----4----4----%------------|-%-------|-%-------|-%-------|-%-------|-%-------|
D|-%-------|-5----5----5----%------------|-%-------|-%-------|-%-------|-%-------|-%-------|
A|---------|-----------------------------|---------|---------|---------|---------|---------|
E|---------|-----------------------10----|---------|---------|---------|---------|---------|

E|---------|---------|---------|--------|---------|-2-------|-10-----10---10---10----|
B|---------|---------|---------|--------|---------|-3-------|------------------------|
G|-%-------|-%-------|-%-------|-%------|-%-------|-2-------|------------------------|
D|-%-------|-%-------|-%-------|-%------|-%-------|-0-------|------------------------|
A|---------|---------|---------|--------|---------|---------|------------------------|
E|---------|---------|---------|--------|---------|---------|------------------------|

E|-10----10---10-----10----|-------------------------|-------------------------|-------------------------|
B|-------------------------|-------------------------|-------------------------|-------------------------|
G|-------------------------|-------7-----------7-----|-------7-----------7-----|-------7-----------7-----|
D|-------------------------|-0-----------0-----------|-0-----------0-----------|-0-----------0-----------|
A|-------------------------|-------------------------|-------------------------|-------------------------|
E|-------------------------|-------------------------|-------------------------|-------------------------|

E|-------------------------|
B|-------------------------|
G|-------7-----------7-----|
D|-0-----------0-----------|
A|-------------------------|
E|-------------------------|
Pink Floyd - Pink Floyd - See Emily Play
Pink Floyd - Pink Floyd - See Emily Play.gp4.gp4