Pink Floyd - Run Like Hell

Pink Floyd



Title: Run Like Hell 
Album: 
Artist: Pink Floyd
Author: 

Track 1: Guitar 1
E|-------------------------------------------------------|----------------------------------|
B|-------------------------------------------------------|----------------------------------|
G|-X---X-----------%-----X---X-------------------X---X---|---------X---X---X---------%------|
D|-X---X-----------%-----X---X-------------------X---X---|---------X---X---X---------%------|
A|---------X---X-----------------X---X---X---X-----------|-X---X----------------------------|
D|---------X---X-----------------X---X---X---X-----------|-X---X---------------12-----------|

E|-----------------------------------------------------------------|--------------------|
B|-----------------------------------------------------------------|--------------------|
G|-----%-----------X---X-----------X---X-----------X---X-----------|-------%-----%------|
D|-----%-----------X---X-----------X---X-----------X---X-----------|-------%-----%------|
A|-------------------------X---X-----------X---X---------------X---|--------------------|
D|-X-------X---X-----------X---X-----------X---X-----------0---X---|-12-----------------|

E|-----------------------------------------------------|-----------------------------------------------------|
B|-----------------------------------------------------|-----------------------------------------------------|
G|-----------------------------------------------------|-----------------------------------------------------|
D|-0----0---0---0----0---0---0----0---0---0----0---0---|-0----0---0---0----0---0---0----0---0---0----0---0---|
A|-----------------------------------------------------|-----------------------------------------------------|
D|-----------------------------------------------------|-----------------------------------------------------|

E|--------------------------------------------------------|--------------------------------------------------------|
B|--------------------------------------------------------|--------------------------------------------------------|
G|--------------------------------------------------------|--------------------------------------------------------|
D|-0----0---0---0----0---0---0---0---0---0---0----0---0---|-0----0---0---0----0---0---0----0---0---3---0-------3---|
A|--------------------------------------------------------|------------------------------------------------3-------|
D|--------------------------------------------------------|--------------------------------------------------------|

E|-----------------------------------------------------|-----------------------------------------------------|
B|-----------------------------------------------------|-----------------------------------------------------|
G|-----------------------------------------------------|-----------------------------------------------------|
D|-0----0---0---0----0---0---0---0----0---0----0---0---|-0----0---0---0----0---0---0----0---0---0----0---0---|
A|-----------------------------------------------------|-----------------------------------------------------|
D|-----------------------------------------------------|-----------------------------------------------------|

E|-----------------------------------------------------|--------------------------------------------------------|
B|-----------------------------------------------------|--------------------------------------------------------|
G|-----------------------------------------------------|--------------------------------------------------------|
D|-0----0---0---0----0---0---0----0---0---0----0---0---|-0----0---0---0----0---0---0---0---0---0---0----0---0---|
A|-----------------------------------------------------|--------------------------------------------------------|
D|-----------------------------------------------------|--------------------------------------------------------|

E|-----------------------------------------------------|--------------------------------------------------------|
B|-----------------------------------------------------|--------------------------------------------------------|
G|-----------------------------------------------------|--------------------------------------------------------|
D|-0----0---0---0----0---0---0----0---0---0----0---0---|-0----0---0---0----0---0---0---0---0---0---0----0---0---|
A|-----------------------------------------------------|--------------------------------------------------------|
D|-----------------------------------------------------|--------------------------------------------------------|

E|-----------------------------------------------------|--------------------------------------------------------|
B|-----------------------------------------------------|--------------------------------------------------------|
G|-----------------------------------------------------|--------------------------------------------------------|
D|-0----0---0---0----0---0---0----0---0---0----0---0---|-0----0---0---0----0---0---0---0---0---0---0----0---0---|
A|-----------------------------------------------------|--------------------------------------------------------|
D|-----------------------------------------------------|--------------------------------------------------------|

E|-----------------------------------------------------|--------------------------------------------------------|
B|-----------------------------------------------------|--------------------------------------------------------|
G|-----------------------------------------------------|--------------------------------------------------------|
D|-0----0---0---0----0---0---0----0---0---0----0---0---|-0----0---0---0----0---0---0---0---0---0---0----0---0---|
A|-----------------------------------------------------|--------------------------------------------------------|
D|-----------------------------------------------------|--------------------------------------------------------|

E|-----------------------------------------------------|--------------------------------------------------------|
B|-----------------------------------------------------|--------------------------------------------------------|
G|-----------------------------------------------------|--------------------------------------------------------|
D|-0----0---0---0----0---0---0----0---0---0----0---0---|-0----0---0---0----0---0---0---0---0---0---0----0---0---|
A|-----------------------------------------------------|--------------------------------------------------------|
D|-----------------------------------------------------|--------------------------------------------------------|

E|-----------------------------------------------------|--------------------------------------------------------|
B|-----------------------------------------------------|--------------------------------------------------------|
G|-----------------------------------------------------|--------------------------------------------------------|
D|-0----0---0---0----0---0---0----0---0---0----0---0---|-0----0---0---0----0---0---0---0---0---0---0----0---0---|
A|-----------------------------------------------------|--------------------------------------------------------|
D|-----------------------------------------------------|--------------------------------------------------------|

E|-----------------------------------------------------|--------------------------------------------------------|
B|-----------------------------------------------------|--------------------------------------------------------|
G|-----------------------------------------------------|--------------------------------------------------------|
D|-0----0---0---0----0---0---0----0---0---0----0---0---|-0----0---0---0----0---0---0---0---0---0---0----0---0---|
A|-----------------------------------------------------|--------------------------------------------------------|
D|-----------------------------------------------------|--------------------------------------------------------|

E|-----------------------------------------------------|--------------------------------------------------------|
B|-----------------------------------------------------|--------------------------------------------------------|
G|-----------------------------------------------------|--------------------------------------------------------|
D|-0----0---0---0----0---0---0----0---0---0----0---0---|-0----0---0---0----0---0---0---0---0---0---0----0---0---|
A|-----------------------------------------------------|--------------------------------------------------------|
D|-----------------------------------------------------|--------------------------------------------------------|

E|----------------------------------------------|----------------------------------------------|
B|----------------------------------------------|----------------------------------------------|
G|----------------------------------------%-----|----------------------------------------%-----|
D|-3----1----3----1---3---3---1---1---3---%-----|-3----1----3----1---3---3---1---1---3---%-----|
A|----------------------------------------------|----------------------------------------------|
D|----------------------------------------------|----------------------------------------------|

E|----------------------------------------------|----------------------------------------------|
B|----------------------------------------------|----------------------------------------------|
G|----------------------------------------%-----|----------------------------------------%-----|
D|-7----5----7----5---7---7---5---5---7---%-----|-7----5----7----5---7---7---5---5---7---%-----|
A|----------------------------------------------|----------------------------------------------|
D|----------------------------------------------|----------------------------------------------|

E|--------------------------------------------------|-----------------------------------------------------|
B|--------------------------------------------------|-----------------------------------------------------|
G|-------------------------------------%------------|-----------------------------%-----------------------|
D|-0---------0---------0---0-------0---%----0---0---|-0---------0------------0----%---0---3---0-------3---|
A|------3---------3------------3--------------------|------3---------3---3------------------------3-------|
D|--------------------------------------------------|-----------------------------------------------------|

E|-----------------------------------------------------|-----------------------------------------------------|
B|-----------------------------------------------------|-----------------------------------------------------|
G|----------------------------------------%------------|----------------------------------------%------------|
D|-0---------0------------0---0-------0---%----0---0---|-0---------0------------0---0-------0---%----0---0---|
A|------3---------3---3-----------3--------------------|------3---------3---3-----------3--------------------|
D|-----------------------------------------------------|-----------------------------------------------------|

E|----------------------------------------------|----------------------------------------------|
B|----------------------------------------------|----------------------------------------------|
G|----------------------------------------%-----|----------------------------------------%-----|
D|-2----0----2----0---2---2---0---0---2---%-----|-2----0----2----0---2---2---0---0---2---%-----|
A|----------------------------------------------|----------------------------------------------|
D|----------------------------------------------|----------------------------------------------|

E|----------------------------------------------|----------------------------------------------|
B|----------------------------------------------|----------------------------------------------|
G|----------------------------------------%-----|----------------------------------------%-----|
D|-3----1----3----1---2---3---1---1---3---%-----|-3----1----3----1---2---3---1---1---3---%-----|
A|----------------------------------------------|----------------------------------------------|
D|----------------------------------------------|----------------------------------------------|

E|----------------------------------------------|----------------------------------------------|
B|----------------------------------------------|----------------------------------------------|
G|----------------------------------------%-----|----------------------------------------%-----|
D|-2----0----2----0---2---2---0---0---2---%-----|-2----0----2----0---2---2---0---0---2---%-----|
A|----------------------------------------------|----------------------------------------------|
D|----------------------------------------------|----------------------------------------------|

E|----------------------------------------------|----------------------------------------------|
B|----------------------------------------------|----------------------------------------------|
G|----------------------------------------%-----|----------------------------------------%-----|
D|----------------------------------------%-----|----------------------------------------%-----|
A|-3----1----3----1---3---3---1---1---3---------|-3----1----3----1---3---3---1---1---3---------|
D|----------------------------------------------|----------------------------------------------|

E|----------------------------------------------|----------------------------------------------|
B|----------------------------------------------|----------------------------------------------|
G|----------------------------------------%-----|----------------------------------------%-----|
D|----------------------------------------%-----|----------------------------------------%-----|
A|-2----0----2----0---2---2---0---0---2---------|-2----0----2----0---2---2---0---0---2---------|
D|----------------------------------------------|----------------------------------------------|

E|----------------------------------------------|----------------------------------------------|
B|----------------------------------------------|----------------------------------------------|
G|----------------------------------------%-----|----------------------------------------%-----|
D|-2----0----2----0---2---2---0---0---2---%-----|-2----0----2----0---2---2---0---0---2---%-----|
A|----------------------------------------------|----------------------------------------------|
D|----------------------------------------------|----------------------------------------------|

E|-----------------------------------------------------|--------------------------------------------------------|
B|-----------------------------------------------------|--------------------------------------------------------|
G|-----------------------------------------------------|--------------------------------------------------------|
D|-0----0---0---0----0---0---0----0---0---0----0---0---|-0----0---0---0----0---0---0---0---0---0---0----0---0---|
A|-----------------------------------------------------|--------------------------------------------------------|
D|-----------------------------------------------------|--------------------------------------------------------|

E|----------------------------------------------|--------------------------------------------------------|
B|----------------------------------------------|--------------------------------------------------------|
G|----------------------------------------%-----|--------------------------------------------------------|
D|-0---------0--------0---0---0-------0---%-----|-0----0---0---0----0---0---0---0---0---0---0----0---0---|
A|------3---------3---------------3-------------|--------------------------------------------------------|
D|----------------------------------------------|--------------------------------------------------------|

E|-------------------------------------------------|----------------------------------------------|
B|-------------------------------------------------|----------------------------------------------|
G|-------------------------------------------%-----|----------------------------------------%-----|
D|-0------------0------------0-----------0---%-----|-2----0----2----0---2---2---0---0---2---%-----|
A|------3---4--------3---4-------3---0-------------|----------------------------------------------|
D|-------------------------------------------------|----------------------------------------------|

E|----------------------------------------------|----------------------------------------------|
B|----------------------------------------------|----------------------------------------------|
G|----------------------------------------%-----|----------------------------------------%-----|
D|-2----0----2----0---2---2---0---0---2---%-----|-3----1----3----1---2---3---1---1---3---%-----|
A|----------------------------------------------|----------------------------------------------|
D|----------------------------------------------|----------------------------------------------|

E|----------------------------------------------|----------------------------------------------|
B|----------------------------------------------|----------------------------------------------|
G|----------------------------------------%-----|----------------------------------------%-----|
D|-3----1----3----1---2---3---1---1---3---%-----|-2----0----2----0---2---2---0---0---2---%-----|
A|----------------------------------------------|----------------------------------------------|
D|----------------------------------------------|----------------------------------------------|

E|----------------------------------------------|----------------------------------------------|
B|----------------------------------------------|----------------------------------------------|
G|----------------------------------------%-----|----------------------------------------%-----|
D|-2----0----2----0---2---2---0---0---2---%-----|----------------------------------------%-----|
A|----------------------------------------------|-3----1----3----1---3---3---1---1---3---------|
D|----------------------------------------------|----------------------------------------------|

E|----------------------------------------------|----------------------------------------------|
B|----------------------------------------------|----------------------------------------------|
G|----------------------------------------%-----|----------------------------------------%-----|
D|----------------------------------------%-----|----------------------------------------%-----|
A|-3----1----3----1---3---3---1---1---3---------|-2----0----2----0---2---2---0---0---2---------|
D|----------------------------------------------|----------------------------------------------|

E|----------------------------------------------|----------------------------------------------|
B|----------------------------------------------|----------------------------------------------|
G|----------------------------------------%-----|----------------------------------------%-----|
D|----------------------------------------%-----|-2----0----2----0---2---2---0---0---2---%-----|
A|-2----0----2----0---2---2---0---0---2---------|----------------------------------------------|
D|----------------------------------------------|----------------------------------------------|

E|----------------------------------------------|-----------------------------------------------------|
B|----------------------------------------------|-----------------------------------------------------|
G|----------------------------------------%-----|-----------------------------------------------------|
D|-2----0----2----0---2---2---0---0---2---%-----|-0----0---0---0----0---0---0----0---0---0----0---0---|
A|----------------------------------------------|-----------------------------------------------------|
D|----------------------------------------------|-----------------------------------------------------|

E|--------------------------------------------------------|--------------------------------------------------------|
B|--------------------------------------------------------|--------------------------------------------------------|
G|--------------------------------------------------------|--------------------------------------------------------|
D|-0----0---0---0----0---0---0----0---0---3---0-------0---|-0----0---0---0----0---0---0---0---0---0---0----0---0---|
A|------------------------------------------------3-------|--------------------------------------------------------|
D|--------------------------------------------------------|--------------------------------------------------------|

E|-----------------------------------------------------|-----------------------------------------------------------|
B|-----------------------------------------------------|-----------------------------------------------------------|
G|----------------------------------------2---0--------|-----------------------------------------------------------|
D|-0----0---0---0----0---0---0----0---0-----------3----|---------0---0---0----0---0---0---0---0---0---0----0---0---|
A|-----------------------------------------------------|-3---5-----------------------------------------------------|
D|-----------------------------------------------------|-----------------------------------------------------------|

E|-----------------------------------------------------------|--------------------------------------------------------|
B|-----------------------------------------------------------|--------------------------------------------------------|
G|-----------------------------------------------------------|--------------------------------------------------------|
D|-0----0---0---0----0---0---0---0---0---0---3---0-------3---|-0----0---0---0----0---0---0---0---0---0---0----0---0---|
A|---------------------------------------------------3-------|--------------------------------------------------------|
D|-----------------------------------------------------------|--------------------------------------------------------|

E|--------------------------------------------------------|-----------------------------------------------------|
B|--------------------------------------------------------|-----------------------------------------------------|
G|----------------------------------------2---0-------2---|-----------------------------------------------------|
D|-0----0---0---0----0---0---0----0---0-----------3-------|----------0---0----0---0---0---0----0---0----0---0---|
A|--------------------------------------------------------|-3---5-----------------------------------------------|
D|--------------------------------------------------------|-----------------------------------------------------|

E|--------------------------------------------------------|--------------------------------------------------------|
B|--------------------------------------------------------|--------------------------------------------------------|
G|----------------------------------------2---0-----------|--------------------------------------------------------|
D|-0----0---0---0----0---0---0----0---0-----------3---0---|-0----0---0---0----0---0---0---0---0---0---0----0---0---|
A|--------------------------------------------------------|--------------------------------------------------------|
D|--------------------------------------------------------|--------------------------------------------------------|

E|--------------------------------------------------------|--------------------------------------------------------|
B|--------------------------------------------------------|--------------------------------------------------------|
G|--------------------------------------------------------|--------------------------------------------------------|
D|-0----0---0---0----0---0---0----0---0---3---0-------3---|-0----0---0---0----0---0---0---0---0---0---0----0---0---|
A|------------------------------------------------3-------|--------------------------------------------------------|
D|--------------------------------------------------------|--------------------------------------------------------|

E|-----------------------------------------------------|--------------------------------------------------------|
B|-----------------------------------------------------|--------------------------------------------------------|
G|-----------------------------------------------------|--------------------------------------------------------|
D|-0----0---0---0----0---0---0----0---0---0----0---0---|-0----0---0---0----0---0---0---0---0---0---0----0---0---|
A|-----------------------------------------------------|--------------------------------------------------------|
D|-----------------------------------------------------|--------------------------------------------------------|

E|--------------------------------------------------------|-----------------------------------------------------|
B|--------------------------------------------------------|-----------------------------------------------------|
G|--------------------------------------------------------|-----------------------------------------------------|
D|-0--------0---0----0---0---0----0---0---3---0---3---3---|-0--------0---0----0---0---0---0----0---0----0---0---|
A|------3-------------------------------------------------|------3----------------------------------------------|
D|--------------------------------------------------------|-----------------------------------------------------|

E|-----------------------------------------------------|-----------------------------------------------------------|
B|-----------------------------------------------------|-----------------------------------------------------------|
G|-----------------------------------------------------|-----------------------------------------------------------|
D|-0----0---0---0----0---0---0----0---0---0----0---0---|---------0-----------0-----------0----0---0---0----0---0---|
A|-----------------------------------------------------|-3---5-------3---5-------3---5-----------------------------|
D|-----------------------------------------------------|-----------------------------------------------------------|

E|--------------------------------------------------------|-----------------------------------------------------|
B|--------------------------------------------------------|-----------------------------------------------------|
G|----------------------------------------2---0-------2---|-0---------------------------------------------------|
D|-0----0---0---0----0---0---0----0---0-----------3-------|------0---0---0--------0---0---0----0---0----0---0---|
A|--------------------------------------------------------|-------------------3---------------------------------|
D|--------------------------------------------------------|-----------------------------------------------------|

E|-----------------------------------------------------|-----------------------------------------------------|
B|-----------------------------------------------------|-----------------------------------------------------|
G|-----------------------------------------------------|-----------------------------------------------------|
D|-0--------0---0--------0---0---0----0---0----0---0---|-0----0---0---0----0---0---0----0---0---0----0---0---|
A|------3------------3---------------------------------|-----------------------------------------------------|
D|-----------------------------------------------------|-----------------------------------------------------|

E|--------------------------------------------------------|-----------------------------------------------------|
B|--------------------------------------------------------|-----------------------------------------------------|
G|--------------------------------------------------------|-----------------------------------------------------|
D|-0----0---0---0----0---0---0---0---0---0---0----0---0---|-0----0---0---0----0---0---0----0---0---0----0---0---|
A|--------------------------------------------------------|-----------------------------------------------------|
D|--------------------------------------------------------|-----------------------------------------------------|

E|--------------------------------------------------------|--------------------------------------------------|
B|--------------------------------------------------------|--------------------------------------------------|
G|--------------------------------------------------------|--------------------------------------------------|
D|-0----0---0---0----0---0---0---0---0---0---0----0---0---|-0----0---0---0----0---0---0----0---0---0----0----|
A|--------------------------------------------------------|--------------------------------------------------|
D|--------------------------------------------------------|--------------------------------------------------|

E|-----------------------------------------|----------------------------|
B|-----------------------------------------|----------------------------|
G|-----------------------------------------|----------------------------|
D|-0----0----0----0----0----0----0----0----|-0----0----0----0----0------|
A|-----------------------------------------|----------------------------|
D|-----------------------------------------|----------------------------|
Pink Floyd - Run Like Hell
Pink Floyd - Run Like Hell.gp3