Pink Floyd - See Emily Play

Pink Floyd



Title: See Emily Play
Album: 
Artist: Pink Floyd
Author: Syd Barrett

Track 1: Guitar 1
E|--------------0-----|-12----12------|-12---12-----0---------------|---------|---------|
B|--------------0-----|-12----12------|-12---12-----0---------------|---------|---------|
G|-%-----%------0-----|-12----12------|-12---12-----0----%----------|-%-------|-%-------|
D|-%-----%------0-----|-12----12------|-12---12-----0----%----------|-%-------|-%-------|
A|--------------------|---------------|-----------------------------|---------|---------|
E|--------------------|---------------|-----------------------12----|---------|---------|

E|---------|---------|---------|---------|--------|--------------12----|-19------|-19---19-----------|
B|---------|---------|---------|---------|--------|--------------------|---------|-------------------|
G|-%-------|-%-------|-%-------|-%-------|-%------|-%------%-----------|---------|--------------%----|
D|-%-------|-%-------|-%-------|-%-------|-%------|-%------%-----------|---------|--------------%----|
A|---------|---------|---------|---------|--------|--------------------|---------|-------------------|
E|---------|---------|---------|---------|--------|--------------------|---------|-------------------|

E|---------|---------|-3---------------------------|---------|---------|---------|---------|
B|---------|---------|-3---------------------------|---------|---------|---------|---------|
G|-%-------|-%-------|-4----%----%-----%-----------|-%-------|-%-------|-%-------|-%-------|
D|-%-------|-%-------|-5----%----%-----%-----------|-%-------|-%-------|-%-------|-%-------|
A|---------|---------|-----------------------------|---------|---------|---------|---------|
E|---------|---------|-----------------------10----|---------|---------|---------|---------|

E|---------|---------|---------|---------|--------|---------|-3----------------------|
B|---------|---------|---------|---------|--------|---------|-3----------------------|
G|-%-------|-%-------|-%-------|-%-------|-%------|-%-------|-4----%----%-----%------|
D|-%-------|-%-------|-%-------|-%-------|-%------|-%-------|-5----%----%-----%------|
A|---------|---------|---------|---------|--------|---------|-5----------------------|
E|---------|---------|---------|---------|--------|---------|-3----------------------|

E|---------|---------|--------------------|-----------------------------|-----------------------------------|
B|---------|---------|--------------------|-----------------------------|-----------------------------------|
G|-%-------|-%-------|-%------------------|-----------------------------|-----------------------------------|
D|-%-------|-%-------|-%-----5------------|----------------------7------|-7-----5---5---5---5---7-----------|
A|---------|---------|--------------------|-----------------------------|-----------------------------0-----|
E|---------|---------|-------------3------|-3----3----5-----5-----------|-----------------------------------|

E|---------------|------------------------|---------|---------|---------|---------------|
B|---------------|------------------------|---------|---------|---------|-12-----12-----|
G|---------------|--------%----%-----%----|-%-------|-%-------|-%-------|---------------|
D|-7------7------|-7------%----%-----%----|-%-------|-%-------|-%-------|---------------|
A|-0------0------|------------------------|---------|---------|---------|---------------|
E|---------------|------------------------|---------|---------|---------|---------------|

E|---------------|--------------------------5---------|---------------|-5---------5---5---5---5---5-------------------|
B|-8------8------|-------8---8---8----8-----------5---|-8------8------|------8-------------------------8----8----8----|
G|---------------|-%----------------------------------|---------------|-----------------------------------------------|
D|---------------|-%----------------------------------|---------------|-----------------------------------------------|
A|---------------|------------------------------------|---------------|-----------------------------------------------|
E|---------------|------------------------------------|---------------|-----------------------------------------------|

E|-5----5------------|---------|---------|---------|-10-----10---10---10----|-10----10---10---10----10----|
B|-8----8------------|---------|---------|---------|------------------------|-----------------------------|
G|--------------%----|-%-------|-%-------|-%-------|------------------------|-----------------------------|
D|--------------%----|-%-------|-%-------|-%-------|------------------------|-----------------------------|
A|-------------------|---------|---------|---------|------------------------|-----------------------------|
E|-------------------|---------|---------|---------|------------------------|-----------------------------|

E|-------------------------|-------------------------|-------------------------|
B|-------------------------|-------------------------|-------------------------|
G|-------7-----------7-----|-------7-----------7-----|-------7-----------7-----|
D|-0-----------0-----------|-0-----------0-----------|-0-----------0-----------|
A|-------------------------|-------------------------|-------------------------|
E|-------------------------|-------------------------|-------------------------|
Pink Floyd - See Emily Play
Pink Floyd - See Emily Play.gp4