Pink Floyd - Shine On You Crazy Diamond part 3

Pink Floyd



Title: Shine On You Crazy Diamond Part 3
Album: Wish You Were Here
Artist: Pink Floyd
Author: Waters - Gilmour - Wright

Track 1: Guitare 1
E|---------------------------|-0-------|-0-------|-0-------|-0-------------------------|
B|---------------6-----------|---------|---------|---------|---------------6-----------|
G|-%-------------------0-----|---------|---------|---------|---------------------0-----|
D|-%-------8-----------------|---------|---------|---------|---------8-----------------|
A|---------------------------|---------|---------|---------|---------------------------|
E|---------------------------|---------|---------|---------|---------------------------|

E|-0-------|-0-------|-0-------|-0-------------------------|-0-------|-0-------------------------|
B|---------|---------|---------|---------------6-----------|---------|---------------6-----------|
G|---------|---------|---------|---------------------0-----|---------|---------------------0-----|
D|---------|---------|---------|---------8-----------------|---------|---------8-----------------|
A|---------|---------|---------|---------------------------|---------|---------------------------|
E|---------|---------|---------|---------------------------|---------|---------------------------|

E|---------|---------|---------|---------|---------|---------------------------------------------------------|
B|---------|---------|---------|---------|---------|---------------------------------------------------------|
G|-%-------|-%-------|-%-------|-%-------|-%-------|-%-------------------------------------------------------|
D|-%-------|-%-------|-%-------|-%-------|-%-------|-%-------------------------------------------------------|
A|---------|---------|---------|---------|---------|-------3----3----3----3----3----3----3----3----3----3----|
E|---------|---------|---------|---------|---------|-------1----1----1----1----1----1----1----1----1----1----|

E|--------------------------|---------------------------|-0-------|-0-------------------------|
B|--------------------------|---------------6-----------|---------|---------------6-----------|
G|--------------------------|---------------------0-----|---------|---------------------0-----|
D|--------------------------|---------8-----------------|---------|---------------------------|
A|-3----5----5------5-------|-5-------------------------|---------|---------8-----------------|
E|-1----3----3------3-------|-3-------------------------|---------|---------------------------|

E|---------------------------|----------------------|---------|---------|---------|
B|---------------------------|----------------------|---------|---------|---------|
G|-8-------8------8----8-----|-8-------%-----8------|-7-------|-%-------|-%-------|
D|-8-------8------8----8-----|-8-------%-----8------|-7-------|-%-------|-%-------|
A|-6-------6------6----6-----|-6-------------6------|-5-------|---------|---------|
E|---------------------------|----------------------|---------|---------|---------|

E|---------|-0-------|-0-------|-0-------|-0-------------------------|-0-------|-0-------|
B|---------|---------|---------|---------|---------------6-----------|---------|---------|
G|-%-------|---------|---------|---------|---------------------0-----|---------|---------|
D|-%-------|---------|---------|---------|---------8-----------------|---------|---------|
A|---------|---------|---------|---------|---------------------------|---------|---------|
E|---------|---------|---------|---------|---------------------------|---------|---------|

E|-0-------|-0-------------------------|-0-------|-0-------------------------|-0-------|
B|---------|---------------6-----------|---------|---------------6-----------|---------|
G|---------|---------------------0-----|---------|---------------------0-----|---------|
D|---------|---------8-----------------|---------|---------8-----------------|---------|
A|---------|---------------------------|---------|---------------------------|---------|
E|---------|---------------------------|---------|---------------------------|---------|

E|-0-------------------------|-0-------|-0-------------------------|-0-------|-0-------------------------|
B|---------------6-----------|---------|---------------6-----------|---------|---------------6-----------|
G|---------------------0-----|---------|---------------------0-----|---------|---------------------0-----|
D|---------8-----------------|---------|---------8-----------------|---------|---------8-----------------|
A|---------------------------|---------|---------------------------|---------|---------------------------|
E|---------------------------|---------|---------------------------|---------|---------------------------|

E|-0-------|-0-------------------------|---------|---------|---------|---------|---------|
B|---------|---------------6-----------|---------|---------|---------|---------|---------|
G|---------|---------------------0-----|-%-------|-%-------|-%-------|-%-------|-%-------|
D|---------|---------8-----------------|-%-------|-%-------|-%-------|-%-------|-%-------|
A|---------|---------------------------|---------|---------|---------|---------|---------|
E|---------|---------------------------|---------|---------|---------|---------|---------|

E|---------|---------|---------|---------|---------|---------|---------|
B|---------|---------|---------|---------|---------|---------|---------|
G|-%-------|-%-------|-%-------|-%-------|-%-------|-%-------|-%-------|
D|-%-------|-%-------|-%-------|-%-------|-%-------|-%-------|-%-------|
A|---------|---------|---------|---------|---------|---------|---------|
E|---------|---------|---------|---------|---------|---------|---------|
Pink Floyd - Shine On You Crazy Diamond part 3
Pink Floyd - Shine On You Crazy Diamond part 3.gp3