Pink Floyd - Shine On You Crazy Diamond part 4

Pink Floyd



Title: Shine On You Crazy Diamond Part 4
Album: Wish You Were Here
Artist: Pink Floyd
Author: Gilmour - Wright - Waters

Track 1: Guitare Solo
E|---------|---------|---------|---------|---------|---------|---------|---------|---------|
B|---------|---------|---------|---------|---------|---------|---------|---------|---------|
G|-%-------|-%-------|-%-------|-%-------|-%-------|-%-------|-%-------|-%-------|-%-------|
D|-%-------|-%-------|-%-------|-%-------|-%-------|-%-------|-%-------|-%-------|-%-------|
A|---------|---------|---------|---------|---------|---------|---------|---------|---------|
E|---------|---------|---------|---------|---------|---------|---------|---------|---------|

E|---------|---------|---------|---------|---------|---------|---------|---------|---------|
B|---------|---------|---------|---------|---------|---------|---------|---------|---------|
G|-%-------|-%-------|-%-------|-%-------|-%-------|-%-------|-%-------|-%-------|-%-------|
D|-%-------|-%-------|-%-------|-%-------|-%-------|-%-------|-%-------|-%-------|-%-------|
A|---------|---------|---------|---------|---------|---------|---------|---------|---------|
E|---------|---------|---------|---------|---------|---------|---------|---------|---------|

E|---------|---------|---------|---------|---------|---------|-------------------------15--------|
B|---------|---------|---------|---------|---------|---------|--------------------15-------------|
G|-%-------|-%-------|-%-------|-%-------|-%-------|-%-------|-%-------%-----%--------------%----|
D|-%-------|-%-------|-%-------|-%-------|-%-------|-%-------|-%-------%-----%--------------%----|
A|---------|---------|---------|---------|---------|---------|-----------------------------------|
E|---------|---------|---------|---------|---------|---------|-----------------------------------|

E|--------15--------18--15------------------------|-----------------3-------------------------------|
B|-20---------------------------20----20----------|------------3---------6-----------6--------------|
G|-------------%------------%---------------%-----|-%-----%-------------------5------5----5----3----|
D|-------------%------------%---------------%-----|-%-----%-----------------------------------------|
A|------------------------------------------------|-------------------------------------------------|
E|------------------------------------------------|-------------------------------------------------|

E|--------------------------|-------------------------------|-------------------------------18---|
B|--------------------------|-------------------------------|--------------------------18--------|
G|-5----3-----------%-------|-%----15-----15------12---15---|-12-----15---%-----%----------------|
D|-----------5------%-------|-%-----------------------------|-------------%-----%----------------|
A|--------------------------|-------------------------------|------------------------------------|
E|--------------------------|-------------------------------|------------------------------------|

E|---------------------------|-----------------------------------|---------------------------|
B|-18----X-------------------|-------------------------11---10---|---------------------------|
G|--------------%----%-------|-%-------%-----%-------------------|-12----%------15----15-----|
D|--------------%----%-------|-%-------%-----%----12-------------|-------%-------------------|
A|---------------------------|-----------------------------------|---------------------------|
E|---------------------------|-----------------------------------|---------------------------|

E|----------------------------------------------------|-------------------------------------|
B|----------------------------------------------------|-------------------------------------|
G|-%-------------15---18---17---15---17-----17---15---|-17----17----17---15---15-----%------|
D|-%-----15--17---------------------------------------|------------------------------%------|
A|----------------------------------------------------|-------------------------------------|
E|----------------------------------------------------|-------------------------------------|

E|-------3-------------------------------------|--------------------------------------------|
B|------------6--------------------------------|--------------------------------------------|
G|-%---------------5-----3-----%-----3---------|-3------%-----5---------3----2--------------|
D|-%---------------------------%----------5----|--------%----------5--------------3---------|
A|---------------------------------------------|---------------------------------------3----|
E|---------------------------------------------|--------------------------------------------|

E|-----------------------------------|----------------------|---------------------15---|
B|-----------------------------------|----------------------|----------------20--------|
G|---------%-----%---------3---------|---------%------15----|-17------%----------------|
D|---------%-----%--------------3----|-5-------%------------|---------%----------------|
A|-5------------------5--------------|----------------------|--------------------------|
E|-----------------------------------|----------------------|--------------------------|

E|------------------------------15---18---15---|-20---------------------------18---18---18---15---|
B|-20----------------------20------------------|--------------------------------------------------|
G|--------0----%-----%-------------------------|--------0----%-----%-----%------------------------|
D|-------------%-----%-------------------------|-------------%-----%-----%------------------------|
A|---------------------------------------------|--------------------------------------------------|
E|---------------------------------------------|--------------------------------------------------|

E|-18------------------------------------10--------|----------------------|------------------------------------------|
B|------18-----18--------------11---13-------------|-16------------13-----|------------------------------------------|
G|-------------------%----12------------------%----|---------%------------|-11------11---12--11--9----11---12---11---|
D|-------------------%------------------------%----|---------%------------|------------------------------------------|
A|-------------------------------------------------|----------------------|------------------------------------------|
E|-------------------------------------------------|----------------------|------------------------------------------|

E|------------------------------3---------|----------------------------------------|
B|-11----------------------3---------6----|----------------------------------------|
G|-12-----%-----%-----%-------------------|-7-------7----5----%-----7----5----3----|
D|--------%-----%-----%-------------------|-------------------%--------------------|
A|----------------------------------------|----------------------------------------|
E|----------------------------------------|----------------------------------------|

E|-----------------------------------------|---------|-----------------|
B|-----------------------------------------|---------|-----------------|
G|-5----3----------3-----------------------|---------|---------%-------|
D|-----------5-----------5-----------------|---------|---------%-------|
A|-----------------------------3-----1-----|-5-------|-5---------------|
E|-----------------------------------------|---------|-----------------|
Pink Floyd - Shine On You Crazy Diamond part 4
Pink Floyd - Shine On You Crazy Diamond part 4.gp3