Pink Floyd - Shine On You Crazy Diamond part 5

Pink Floyd



Title: Shine On You Crazy Diamond Part 5
Album: WishYou Were Here
Artist: Pink Floyd
Author: Waters

Track 1: Guitare 1
E|---------|-----------------------------------|---------|--------------3----------------|
B|---------|-----------------------------------|---------|---------3----3-----3----3-----|
G|-%-------|-%-----%---------3---------5-------|---------|-3-------3----------3----3-----|
D|-%-------|-%-----%----5---------5------------|-4-------|-3-------3---------------3-----|
A|---------|-----------------------------------|---------|-1-----------------------1-----|
E|---------|-----------------------------------|---------|-------------------------------|

E|-----------------|-----------------|----------------------|--------------------------------|
B|-----------------|-----------------|----------------------|--------------------------------|
G|-8-------7-------|-5-------3-------|----------------------|--------%-----------------%-----|
D|-8-------7-------|-5-------3-------|-3-------3------------|--------%-----------------%-----|
A|-6-------5-------|-3-------1-------|-3-------3------3-----|--------------------------------|
E|-----------------|-----------------|-1-------1------------|-1------------1-----2-----------|

E|---------|---------------------------|---------|-------------------------------|-----------------|
B|---------|-------6-------------------|---------|-------------------------------|-----------------|
G|-%-------|-%------------5-----%------|-6-------|-3-------3----3-----3----3-----|-8-------7-------|
D|-%-------|-%------------------%------|---------|-3-------3----3-----3----3-----|-8-------7-------|
A|---------|---------------------------|---------|-1-------1----1-----1----1-----|-6-------5-------|
E|---------|---------------------------|---------|-------------------------------|-----------------|

E|-----------------|--------13---13---13----10----8----10---|---------|--------------------------------|
B|-----------------|--------13---13---13----10----8----10---|-6-------|--------------------------------|
G|-5-------3-------|----------------------------------------|-5-------|-------3-----5-----5------3-----|
D|-5-------3-------|-3--------------------------------------|-7-------|-5------------------------------|
A|-3-------1-------|-3--------------------------------------|---------|--------------------------------|
E|-----------------|-1--------------------------------------|---------|--------------------------------|

E|--------------------------------|---------------------------|--------------------------|
B|--------------------------------|---------------------------|--------------------------|
G|-------3-----5-----5------3-----|-------3-----5-----5-------|--------------------------|
D|-4------------------------------|-3-------------------------|-2-------2-----------0----|
A|--------------------------------|---------------------------|----------------3---------|
E|--------------------------------|---------------------------|--------------------------|

E|----------------------------------------|-------------------0-----------------|-----------------------1-----------------|
B|----------------------------------------|-------------2-----------2-----------|-------3----3----------------3-----------|
G|------------------4---------4-----------|-------0-----------------------0-----|-------3----3----------------------3-----|
D|-1------3----5----3----5----3-----5-----|-2-----------------------------------|-3---------------3-----------------------|
A|----------------------------------------|-------------------------------------|-----------------------------------------|
E|----------------------------------------|-------------------------------------|-----------------------------------------|

E|-------1------2-----------------|----------------------------------------|---------|
B|-------3------------3-----------|----------------------------------------|---------|
G|-%-----2------------------2-----|-5----5----5------5------7----5----3----|-5-------|
D|-%------------------------------|----------------------------------------|---------|
A|--------------------------------|----------------------------------------|---------|
E|--------------------------------|----------------------------------------|---------|

E|---------------------------|---------------------------|-----------------|-----------------|
B|---------------------------|-3-------3-----4-----6-----|-8-------8-------|-----------------|
G|-5-------3-----5-----5-----|---------------------------|-----------------|-7-------7-------|
D|---------------------------|---------------------------|-----------------|-----------------|
A|---------------------------|---------------------------|-----------------|-----------------|
E|---------------------------|---------------------------|-----------------|-----------------|

E|-----------------------------------------|----------------------|-----------------|
B|-5-----5----3----------------------------|----------------------|-----------------|
G|-----------------5-----5-----%-----------|----------------------|---------%-------|
D|-----------------------------%-----------|----------------------|---------%-------|
A|-----------------------------------------|----------------------|-----------------|
E|-----------------------------------3-----|-1-------1-----2------|-3---------------|

E|---------------------------|---------|-------------------------------|-----------------|
B|---------------------------|---------|---------3----3-----3----3-----|-----------------|
G|-%------5-----5------3-----|---------|-3-------3----3-----3----3-----|-8-------7-------|
D|-%-------------------------|-4-------|-3-------3----3-----3----3-----|-8-------7-------|
A|---------------------------|---------|-1-------1----1-----1----1-----|-6-------5-------|
E|---------------------------|---------|-------------------------------|-----------------|

E|-----------------|--------------------------------|---------------------------|---------|
B|-----------------|--------------------------------|---------------------------|---------|
G|-5-------3-------|--------------------------------|---------------------%-----|-%-------|
D|-5-------3-------|-3------------------------------|---------------------%-----|-%-------|
A|-3-------1-------|-3------------3-----3-----------|---------------------------|---------|
E|-----------------|-1------1-----------------3-----|-3-------3-----2-----------|---------|

E|------------------------------------|---------|-------------------------------|-----------------|
B|-6-------6--------------------------|---------|---------3----------3----3-----|-----------------|
G|---------------5-----%----3----5----|-3-------|-3-------3----3-----3----3-----|-8-------7-------|
D|---------------------%--------------|---------|-3-------3----3-----3----3-----|-8-------7-------|
A|------------------------------------|---------|-1-------1----1-----1----1-----|-6-------5-------|
E|------------------------------------|---------|-------------------------------|-----------------|

E|-----------------|--------13---13---13----10----8----10---|---------|---------------------------|
B|-----------------|--------13---13---13----10----8----10---|-6-------|---------------------------|
G|-5-------3-------|----------------------------------------|-5-------|-------3-----5-----5-------|
D|-5-------3-------|-3--------------------------------------|-7-------|-5-------------------------|
A|-3-------1-------|-3--------------------------------------|---------|---------------------------|
E|-----------------|-1--------------------------------------|---------|---------------------------|

E|---------------------------|---------------------------|-----------------|----------------------------------------|
B|---------------------------|---------------------------|-----------------|----------------------------------------|
G|-------3-----5-----5-------|-------3-----5-----5-------|---------%-------|------------------4---------4-----------|
D|-4-------------------------|-3-------------------------|-2-------%-------|-1------3----5----3----5----3-----5-----|
A|---------------------------|---------------------------|-----------------|----------------------------------------|
E|---------------------------|---------------------------|-----------------|----------------------------------------|

E|-------------------0-----------------|-----------------------1-----------------|-------1------2-----------------|
B|-------------2-----------2-----------|-------3----3----------------3-----------|-------3------------3-----------|
G|-------0-----------------------0-----|-------3----3----------------------3-----|-%-----2------------------2-----|
D|-2-----------------------------------|-3---------------3-----------------------|-%------------------------------|
A|-------------------------------------|-----------------------------------------|--------------------------------|
E|-------------------------------------|-----------------------------------------|--------------------------------|

E|-3-------|---------------------------|-0-------|---------|---------|---------------------------|
B|-3-------|---------------6-----------|---------|---------|---------|---------------6-----------|
G|-3-------|-%-------------------0-----|---------|-%-------|-%-------|-%-------------------0-----|
D|-5-------|-%-------8-----------------|---------|-%-------|-%-------|-%-------8-----------------|
A|-5-------|---------------------------|---------|---------|---------|---------------------------|
E|-3-------|---------------------------|---------|---------|---------|---------------------------|

E|-0----------8----------10---------8----------|-0----------8----------10---------8----------|
B|------6----------6----------6----------6-----|------6----------6----------6----------6-----|
G|---------------------------------------------|---------------------------------------------|
D|---------------------------------------------|---------------------------------------------|
A|---------------------------------------------|---------------------------------------------|
E|---------------------------------------------|---------------------------------------------|

E|-0----------8----------10---------8----------|-0----------8----------10---------8----------|
B|------6----------6----------6----------6-----|------6----------6----------6----------6-----|
G|---------------------------------------------|---------------------------------------------|
D|---------------------------------------------|---------------------------------------------|
A|---------------------------------------------|---------------------------------------------|
E|---------------------------------------------|---------------------------------------------|

E|-0----------8----------10---------8----------|-0----------8----------10---------8----------|
B|------6----------6----------6----------6-----|------6----------6----------6----------6-----|
G|---------------------------------------------|---------------------------------------------|
D|---------------------------------------------|---------------------------------------------|
A|---------------------------------------------|---------------------------------------------|
E|---------------------------------------------|---------------------------------------------|

E|-6----6-----6----------5----------6----------|-6----------6----------5----------6----------|
B|-----------------8----------8----------8-----|------8----------8----------8----------8-----|
G|---------------------------------------------|---------------------------------------------|
D|---------------------------------------------|---------------------------------------------|
A|---------------------------------------------|---------------------------------------------|
E|---------------------------------------------|---------------------------------------------|

E|-5----------5----------4----------5----------|-6----------5----------4----------5----------|
B|------7----------7----------7----------7-----|------7----------7----------7----------7-----|
G|---------------------------------------------|---------------------------------------------|
D|---------------------------------------------|---------------------------------------------|
A|---------------------------------------------|---------------------------------------------|
E|---------------------------------------------|---------------------------------------------|

E|-0--------------8--------------10-------------8--------------|-0--------------8--------------10-------------8--------------|
B|------6--------------6--------------6--------------6---------|------6--------------6--------------6--------------6---------|
G|-------------------------------------------------------------|-------------------------------------------------------------|
D|-----------8--------------8--------------8--------------8----|-----------8--------------8--------------8--------------8----|
A|-------------------------------------------------------------|-------------------------------------------------------------|
E|-------------------------------------------------------------|-------------------------------------------------------------|

E|-0--------------8--------------10-------------8--------------|-0--------------8--------------10-------------8--------------|
B|------6--------------6--------------6--------------6---------|------6--------------6--------------6--------------6---------|
G|-------------------------------------------------------------|-------------------------------------------------------------|
D|-----------8--------------8--------------8--------------8----|-----------8--------------8--------------8--------------8----|
A|-------------------------------------------------------------|-------------------------------------------------------------|
E|-------------------------------------------------------------|-------------------------------------------------------------|

E|-0--------------8--------------10-------------8--------------|-0--------------8--------------10-------------8--------------|
B|------6--------------6--------------6--------------6---------|------6--------------6--------------6--------------6---------|
G|-------------------------------------------------------------|-------------------------------------------------------------|
D|-----------8--------------8--------------8--------------8----|-----------8--------------8--------------8--------------8----|
A|-------------------------------------------------------------|-------------------------------------------------------------|
E|-------------------------------------------------------------|-------------------------------------------------------------|

E|-0--------------8--------------10-------------8--------------|-0--------------8--------------10-------------8--------------|
B|------6--------------6--------------6--------------6---------|------6--------------6--------------6--------------6---------|
G|-------------------------------------------------------------|-------------------------------------------------------------|
D|-----------8--------------8--------------8--------------8----|-----------8--------------8--------------8--------------8----|
A|-------------------------------------------------------------|-------------------------------------------------------------|
E|-------------------------------------------------------------|-------------------------------------------------------------|

E|-6--------------6--------------5--------------6--------------|-6--------------6--------------5--------------6--------------|
B|------8--------------8--------------8--------------8---------|------8--------------8--------------8--------------8---------|
G|-------------------------------------------------------------|-------------------------------------------------------------|
D|-----------8--------------8--------------8--------------8----|-----------8--------------8--------------8--------------8----|
A|-------------------------------------------------------------|-------------------------------------------------------------|
E|-------------------------------------------------------------|-------------------------------------------------------------|

E|-5--------------5--------------4--------------5--------------|-6----------5----------4----------5----------|
B|------7--------------7--------------7--------------7---------|------7----------7----------7----------7-----|
G|-------------------------------------------------------------|---------------------------------------------|
D|-----------7--------------7--------------7--------------7----|---------------------------------------------|
A|-------------------------------------------------------------|---------------------------------------------|
E|-------------------------------------------------------------|---------------------------------------------|

E|-0--------------8--------------10-------------8--------------|-0--------------8--------------10-------------8--------------|
B|------6--------------6--------------6--------------6---------|------6--------------6--------------6--------------6---------|
G|-------------------------------------------------------------|-------------------------------------------------------------|
D|-----------8--------------8--------------8--------------8----|-----------8--------------8--------------8--------------8----|
A|-------------------------------------------------------------|-------------------------------------------------------------|
E|-------------------------------------------------------------|-------------------------------------------------------------|
Pink Floyd - Shine On You Crazy Diamond part 5
Pink Floyd - Shine On You Crazy Diamond part 5.gp3