Pink Floyd - Shine On You Crazy Diamond part 6

Pink Floyd



Title: Shine On You Crazy Diamond part 6
Album: Whish You Were Here
Artist: Pink Floyd
Author: Wright - Waters - Gilmour

Track 1: Guitare 1
E|-------------------------------------------------------------|-------------------------------------------------------------|
B|-------------------------------------------------------------|-------------------------------------------------------------|
G|-------------------------------------------------------------|-------------------------------------------------------------|
D|-------------------------------------------------------------|-------------------------------------------------------------|
A|-------------------------------------------------------------|-------------------------------------------------------------|
E|-3----3----3----3----3----3----3----3----3----3----3----3----|-3----3----3----3----3----3----3----3----3----3----3----3----|

E|-------------------------------------------------------------|---------------------------|
B|-------------------------------------------------------------|---------------------------|
G|-------------------------------------------------------------|-%------%------%-----------|
D|-------------------------------------------------------------|-%------%------%-----------|
A|-------------------------------------------------------------|---------------------------|
E|-3----3----3----3----3----3----3----3----3----3----3----3----|---------------------15----|

E|----------------------------|---------|---------------------------|----------------------------|
B|----------------------------|---------|---------------------------|----------------------------|
G|----------------------------|-%-------|-%------%------%-----------|----------------------------|
D|----------------------------|-%-------|-%------%------%-----------|----------------------------|
A|----------------------------|---------|---------------------------|----------------------------|
E|-3------3------3-----3------|---------|---------------------15----|-3------3------3-----3------|

E|---------|------10--------10--------10---10----------------|---------|---------------------------|
B|---------|------11--------11--------11---11----------------|---------|---------------------------|
G|-%-------|-%----12---%----12---%----12---12----%-----------|-%-------|-%------%------%------7----|
D|-%-------|-%---------%---------%---------------%-----------|-%-------|-%------%------%------5----|
A|---------|-------------------------------------------------|---------|---------------------------|
E|---------|-------------------------------------------15----|---------|---------------------------|

E|----------------------|---------------------------|---------|------10--------10--------10--------10--------10--------10---|
B|----------------------|---------------------------|---------|------11--------11--------11--------11--------11--------11---|
G|-10------%------------|-------%-----%------%------|-%-------|-%----12---%----12---%----12---%----12---%----12---%----12---|
D|-8-------%------------|-------%-----%------%------|-%-------|-%----12---%----12---%----12---%----12---%----12---%----12---|
A|----------------------|---------------------------|---------|-------------------------------------------------------------|
E|----------------15----|-3-------------------------|---------|-------------------------------------------------------------|

E|---------------------------|---------|-------------------------------|-----------------|
B|---------------------------|---------|-------------------------------|-----------------|
G|-10----%-----%------%------|-%-------|-%------%------2---0-----------|---------%-------|
D|-------%-----%------%------|-%-------|-%------%----------------------|---------%-------|
A|---------------------------|---------|-------------------------------|-----------------|
E|---------------------------|---------|-------------------------15----|-3---------------|

E|---------|-------------------------------------------------|-------------------------------|
B|---------|------11--------11--------11---11----11----------|---------11---11---------------|
G|-%-------|-%----12---%----12---%----12---12----12----%-----|-%-------12---12---------------|
D|-%-------|-%----12---%----12---%----12---12----12----%-----|-%-------12---12---------------|
A|---------|-------------------------------------------------|-------------------10---8------|
E|---------|-------------------------------------------------|-------------------------------|

E|---------|---------|------15--------15--------15---15-----------|-----------------------------------------------------|
B|---------|---------|------15--------15--------15---15-----------|------11--------11--------11---11--------------------|
G|-%-------|-%-------|-%----15---%----15---%----15---15----%------|-%----12---%----12---%----12---12---%----%-----5-----|
D|-%-------|-%-------|-%---------%---------%---------------%------|-%----12---%----12---%----12---12---%----%-----5-----|
A|---------|---------|--------------------------------------------|-----------------------------------------------------|
E|---------|---------|--------------------------------------------|-----------------------------------------------------|

E|-----------------|---------|---------|---------|---------|---------------------|----------------------|
B|-----------------|---------|---------|---------|---------|---------------------|----------------------|
G|-3-------%-------|-%-------|-%-------|-%-------|---------|---------%-----------|--------%------%------|
D|-3-------%-------|-%-------|-%-------|-%-------|-8-------|-8-------%-----------|--------%------%------|
A|-----------------|---------|---------|---------|-6-------|-6------------15-----|-5--------------------|
E|-----------------|---------|---------|---------|---------|---------------------|----------------------|

E|---------------------------|---------|---------|---------|-------------------------------------------------------------|
B|---------------------------|---------|---------|---------|-------------------------------------------------------------|
G|-%------%------%-----------|---------|-%-------|-%-------|-------------------------------------------------------------|
D|-%------%------%-----------|---------|-%-------|-%-------|-7----7----7----7----7----7----7----7----7----7----7----7----|
A|---------------------------|---------|---------|---------|-5----5----5----5----5----5----5----5----5----5----5----5----|
E|---------------------15----|-3-------|---------|---------|-------------------------------------------------------------|

E|---------------------------------|---------------------------------|-------------------------------------|
B|--------3-------------5-----3----|--------3------------5----3------|--------3------3----------3-----5----|
G|-%------3------%------5-----3----|-%------3------%-----5----3------|-%------3------3-----%----3-----5----|
D|-%------3------%------5-----3----|-%------3------%-----5----3------|-%------3------3-----%----3-----5----|
A|---------------------------------|---------------------------------|-------------------------------------|
E|---------------------------------|---------------------------------|-------------------------------------|

E|-------------------------------------------------------------|-------------------------------------|
B|------3---------3---------3---------3---------3---------3----|--------3------3----------3-----5----|
G|-%----3----%----3----%----3----%----3----%----3----%----3----|-%------3------3-----%----3-----5----|
D|-%----3----%----3----%----3----%----3----%----3----%----3----|-%------3------3-----%----3-----5----|
A|-------------------------------------------------------------|-------------------------------------|
E|-------------------------------------------------------------|-------------------------------------|

E|---------------------------------|---------------------------------|---------------------------------------------|
B|--------5------5-----------------|--------3-------------3-----5----|--------3-----------3---------3---------5----|
G|-%------5------5-----%----%------|-%------3------%------3-----5----|-%------3------%----3----%----3----%----5----|
D|-%------5------5-----%----%------|-%------3------%------3-----5----|-%------3------%----3----%----3----%----5----|
A|---------------------------------|---------------------------------|---------------------------------------------|
E|---------------------------------|---------------------------------|---------------------------------------------|

E|-------------------------------------|---------------------------------|-------------------------------------------------------------|
B|--------3-----5-----------3-----5----|--------3-------------3-----5----|------3---------3---------3---------3---------3---------3----|
G|-%------3-----5----%------3-----5----|-%------3------%------3-----5----|-%----3----%----3----%----3----%----3----%----3----%----3----|
D|-%------3-----5----%------3-----5----|-%------3------%------3-----5----|-%----3----%----3----%----3----%----3----%----3----%----3----|
A|-------------------------------------|---------------------------------|-------------------------------------------------------------|
E|-------------------------------------|---------------------------------|-------------------------------------------------------------|

E|-------------------------------------------------------------|--------------------------------|
B|------3---------3---------3---------3---------3---------3----|--------3------------3-----3----|
G|-%----3----%----3----%----3----%----3----%----3----%----3----|-%------3-----%------3-----3----|
D|-%----3----%----3----%----3----%----3----%----3----%----3----|-%------3-----%------3-----3----|
A|-------------------------------------------------------------|--------------------------------|
E|-------------------------------------------------------------|--------------------------------|

E|---------------------------------|---------------------------------------------|-------------------------------------------------------------|
B|--------3------3-----3----3------|--------3-----------3---------3---------3----|------3---------3---------3---------3---------3---------3----|
G|-%------3------3-----3----3------|-%------3------%----3----%----3----%----3----|-%----3----%----3----%----3----%----3----%----3----%----3----|
D|-%------3------3-----3----3------|-%------3------%----3----%----3----%----3----|-%----3----%----3----%----3----%----3----%----3----%----3----|
A|---------------------------------|---------------------------------------------|-------------------------------------------------------------|
E|---------------------------------|---------------------------------------------|-------------------------------------------------------------|

E|---------------------------------------------|---------------------------------------------|
B|--------8-----------8---------8---------8----|--------8-----------8---------8---------8----|
G|-%------8------%----8----%----8----%----8----|-%------8------%----8----%----8----%----8----|
D|-%------8------%----8----%----8----%----8----|-%------8------%----8----%----8----%----8----|
A|--------6------------------------------------|--------6------------------------------------|
E|---------------------------------------------|---------------------------------------------|

E|---------------------------------------------|-----------------------------|---------------------------------|
B|--------7-----------7---------7---------7----|--------7------7------7------|--------3-------------3-----5----|
G|-%------7------%----7----%----7----%----7----|-%------7------7------7------|-%------3------%------3-----5----|
D|-%------7------%----7----%----7----%----7----|-%------7------7------7------|-%------3------%------3-----5----|
A|--------5------------------------------------|--------5------5------5------|---------------------------------|
E|---------------------------------------------|-----------------------------|---------------------------------|

E|-------------------------------------|---------------------------------|-------------------------------------------------------------|
B|--------3------3----------3-----5----|--------3-------------3-----5----|-7----7----7----7----7----7----7----7----7----7----7----7----|
G|-%------3------3-----%----3-----5----|-%------3------%------3-----5----|-7----7----7----7----7----7----7----7----7----7----7----7----|
D|-%------3------3-----%----3-----5----|-%------3------%------3-----5----|-7----7----7----7----7----7----7----7----7----7----7----7----|
A|-------------------------------------|---------------------------------|-------------------------------------------------------------|
E|-------------------------------------|---------------------------------|-------------------------------------------------------------|

E|---------------------------------------------|-------------------------------------------------------------|
B|--------3-----5----X----X----X----------5----|------3---------3---------3---------3---------3---------3----|
G|-%------3-----5----X----X----X----------5----|-%----3----%----3----%----3----%----3----%----3----%----3----|
D|-%------3-----5----X----X----X----3-----5----|-%----3----%----3----%----3----%----3----%----3----%----3----|
A|----------------------------------3----------|-------------------------------------------------------------|
E|----------------------------------3----------|-------------------------------------------------------------|

E|---------------------------------------------|-------------------------------------------------|
B|--------3-----5----X----X----X----------5----|--------3-----5---------3---------3---------3----|
G|-%------3-----5----X----X----X----------5----|-%------3-----5----%----3----%----3----%----3----|
D|-%------3-----5----X----X----X----3-----5----|-%------3-----5----%----3----%----3----%----3----|
A|----------------------------------3----------|-------------------------------------------------|
E|----------------------------------3----------|-------------------------------------------------|

E|---------------------------------------------|-------------------------------------------------|
B|-------X----3------X----3----X----3-----5----|-X----3----X----3------X----3----X----3-----5----|
G|-%-----X----3------X----3----X----3-----5----|-X----3----X----3------X----3----X----3-----5----|
D|-%-----X----3------X----3----X----3-----5----|-X----3----X----3------X----3----X----3-----5----|
A|---------------------------------------------|-------------------------------------------------|
E|---------------------------------------------|-------------------------------------------------|

E|-------------------------------------------------------------|-------------------------------------------------------------|
B|-3----3---3-----3----3---3-----3----3---3-----3----3---3-----|-3----3---3-----3----3---3-----3----3---3-----3----3---3-----|
G|-3----3---3-----3----3---3-----3----3---3-----3----3---3-----|-3----3---3-----3----3---3-----3----3---3-----3----3---3-----|
D|-3----3---3-----3----3---3-----3----3---3-----3----3---3-----|-3----3---3-----3----3---3-----3----3---3-----3----3---3-----|
A|-------------------------------------------------------------|-------------------------------------------------------------|
E|-------------------------------------------------------------|-------------------------------------------------------------|

E|-------------------------------------|---------------------------------|-------------------------------------|
B|--------3-----5-----------3-----5----|-------------5-----3-------------|--------3-----5-----------3-----5----|
G|-%------3-----5----%------3-----5----|-%-----------5-----3------%------|-%------3-----5----%------3-----5----|
D|-%------3-----5----%------3-----5----|-%------3----5-----3------%------|-%------3-----5----%------3-----5----|
A|-------------------------------------|--------3------------------------|-------------------------------------|
E|-------------------------------------|--------3------------------------|-------------------------------------|

E|-----------------------------------------|---------------------------------------------|
B|--------3----------3----------3----------|--------3-----5----X----X----X----3-----5----|
G|-%------3-----%----3-----%----3-----%----|-%------3-----5----X----X----X----3-----5----|
D|-%------3-----%----3-----%----3-----%----|-%------3-----5----X----X----X----3-----5----|
A|-----------------------------------------|---------------------------------------------|
E|-----------------------------------------|---------------------------------------------|

E|----------------------------------------------------------------------|---------------------------------------------------------------|
B|----------------------------------------------------------------------|----------------------3-----5----X----X----X----5----X----5----|
G|----------------------------------------------------------------------|----------------------3-----5----X----X----X----5----X----5----|
D|-X---3---X----3----3----3---3---3----3----3----3----3----3---3---3----|-X---X---X---X---X----3-----5----X----X----X----5----X----5----|
A|-X---3---X----3----3----3---3---3----3----3----3----3----3---3---3----|-X---X---X---X---X---------------------------------------------|
E|-X---3---X----3----3----3---3---3----3----3----3----3----3---3---3----|-X---X---X---X---X---------------------------------------------|

E|-----------------------------------------------------|-X----X----X----3------X----X----X----3-----3----|
B|-X----X----X----3-----5----X----X----X----3-----5----|-X----X----X----3------X----X----X----3-----3----|
G|-X----X----X----3-----5----X----X----X----3-----5----|-X----X----X----3------X----X----X----3-----3----|
D|-X----X----X----3-----5----X----X----X----3-----5----|-------------------------------------------------|
A|-----------------------------------------------------|-------------------------------------------------|
E|-----------------------------------------------------|-------------------------------------------------|

E|-X----X----X----3------X----X----X----3-----3----|-------------------------------------|
B|-X----X----X----3------X----X----X----3-----3----|--------7-----7----7-----7----7------|
G|-X----X----X----3------X----X----X----3-----3----|-%------7-----7----7-----7----7------|
D|-------------------------------------------------|-%------7-----7----7-----7----7------|
A|-------------------------------------------------|-------------------------------------|
E|-------------------------------------------------|-------------------------------------|

E|-----------------------------------------|-----------------------------------------|
B|-7-----7----7-----7------7----7----7-----|------------------------------------5----|
G|-7-----7----7-----7------7----7----7-----|-%------3------3----3----X----3-----5----|
D|-7-----7----7-----7------7----7----7-----|-%------5------5----5----X----5-----5----|
A|-----------------------------------------|--------5------5----5----X----5----------|
E|-----------------------------------------|-----------------------------------------|

E|-------------------------------------------------|---------------------------------------------|
B|-X----X----X----5------X----X----X----5-----5----|-X----X-----3-----5----X----3-----X----3-----|
G|-X----X----X----5------X----X----X----5-----5----|-X----X-----3-----5----X----3-----X----3-----|
D|-X----X----X----5------X----X----X----5-----5----|-X----X-----3-----5----X----3-----X----3-----|
A|-------------------------------------------------|---------------------------------------------|
E|-------------------------------------------------|---------------------------------------------|

E|-------------------------------------------------------------|-----------------------------------------|
B|-------------------------------------------------------------|-X-----X----3------X-----X----3-----3----|
G|-7----7----7----7----7----7----7----7----7----7----7----7----|-X-----X----3------X-----X----3-----3----|
D|-7----7----7----7----7----7----7----7----7----7----7----7----|-X-----X----3------X-----X----3-----3----|
A|-5----5----5----5----5----5----5----5----5----5----5----5----|-----------------------------------------|
E|-------------------------------------------------------------|-----------------------------------------|

E|-----------------------------------------|-------------------------------------|--------------------------------|
B|-X-----X----3------X-----X----3-----5----|-------------------------------------|--------------------------------|
G|-X-----X----3------X-----X----3-----5----|-X-----X----3------X-----X----3------|-3-----3-----3-----3------%-----|
D|-X-----X----3------X-----X----3-----5----|-X-----X----2------X-----X----2------|-3-----3-----3-----3------%-----|
A|-----------------------------------------|-X-----X----4------X-----X----4------|-1-----1-----1-----1------------|
E|-----------------------------------------|-------------------------------------|--------------------------------|

E|---------|---------|---------|---------|
B|---------|---------|---------|---------|
G|-%-------|-%-------|-%-------|-%-------|
D|-%-------|-%-------|-%-------|-%-------|
A|---------|---------|---------|---------|
E|---------|---------|---------|---------|
Pink Floyd - Shine On You Crazy Diamond part 6
Pink Floyd - Shine On You Crazy Diamond part 6.gp3