Pink Floyd - Shine On You Crazy Diamond part 9

Pink Floyd



Title: Shine On You Crazy Diamond part 9
Album: Wish You Were Here
Artist: Pink Floyd
Author: Wright

Track 1: Guitare
E|---------|---------|---------|---------|---------|---------|---------|---------|---------|
B|---------|---------|---------|---------|---------|---------|---------|---------|---------|
G|-%-------|-%-------|-%-------|-%-------|-%-------|-%-------|-%-------|-%-------|-%-------|
D|-%-------|-%-------|-%-------|-%-------|-%-------|-%-------|-%-------|-%-------|-%-------|
A|---------|---------|---------|---------|---------|---------|---------|---------|---------|
E|---------|---------|---------|---------|---------|---------|---------|---------|---------|

E|---------|---------|---------|---------|---------|---------|---------|---------|---------|
B|---------|---------|---------|---------|---------|---------|---------|---------|---------|
G|-%-------|-%-------|-%-------|-%-------|-%-------|-%-------|-%-------|-%-------|-%-------|
D|-%-------|-%-------|-%-------|-%-------|-%-------|-%-------|-%-------|-%-------|-%-------|
A|---------|---------|---------|---------|---------|---------|---------|---------|---------|
E|---------|---------|---------|---------|---------|---------|---------|---------|---------|

E|---------|---------|---------|---------|---------|---------|---------|---------|---------|
B|---------|---------|---------|---------|---------|---------|---------|---------|---------|
G|-%-------|-%-------|-%-------|-%-------|-%-------|-%-------|-%-------|-%-------|-%-------|
D|-%-------|-%-------|-%-------|-%-------|-%-------|-%-------|-%-------|-%-------|-%-------|
A|---------|---------|---------|---------|---------|---------|---------|---------|---------|
E|---------|---------|---------|---------|---------|---------|---------|---------|---------|

E|---------|---------|---------|---------|---------|---------|--------------------|
B|---------|---------|---------|---------|---------|-20------|--------------------|
G|-%-------|-%-------|-%-------|-%-------|-%-------|---------|-%------%-----19----|
D|-%-------|-%-------|-%-------|-%-------|-%-------|---------|-%------%-----------|
A|---------|---------|---------|---------|---------|---------|--------------------|
E|---------|---------|---------|---------|---------|---------|--------------------|

E|---------------|---------|---------------|-------------------16----|-13-----------------|
B|---------------|---------|---------------|-18----------------------|--------------------|
G|-10------%-----|-%-------|-17------%-----|--------%----%-----------|-------%-----%------|
D|---------%-----|-%-------|---------%-----|--------%----%-----------|-------%-----%------|
A|---------------|---------|---------------|-------------------------|--------------------|
E|---------------|---------|---------------|-------------------------|--------------------|

E|---------|---------|--------------------|--------------------|---------|-------------------|
B|---------|---------|--------------------|--------------------|---------|-------------------|
G|-%-------|-%-------|-%------17-----15---|-12----%-----%------|-%-------|-14------%----14---|
D|-%-------|-%-------|-%------------------|-------%-----%------|-%-------|---------%---------|
A|---------|---------|--------------------|--------------------|---------|-------------------|
E|---------|---------|--------------------|--------------------|---------|-------------------|

E|------------------------|----------------------------------|---------------|---------|
B|------------------------|-------------------15---17---15---|-19------------|---------|
G|-11---%----%-----%------|-19----%-----%--------------------|--------%------|-12------|
D|------%----%-----%------|-------%-----%--------------------|--------%------|-12------|
A|------------------------|----------------------------------|---------------|---------|
E|------------------------|----------------------------------|---------------|---------|

E|---------|
B|---------|
G|-12------|
D|-12------|
A|---------|
E|---------|
Pink Floyd - Shine On You Crazy Diamond part 9
Pink Floyd - Shine On You Crazy Diamond part 9.gp3