Pink Floyd - Shine On You Crazy Diamond (Parts I - V) (2)

Pink Floyd



Title: Shine On You Crazy Diamond (Parts I - V)
Album: Wish You Were Here
Artist: Pink Floyd
Author: Wright, Waters, Gilmour

Track 1: Guitar
E|---------|---------|---------|---------|---------|---------|---------|---------|---------|
B|---------|---------|---------|---------|---------|---------|---------|---------|---------|
G|-%-------|-%-------|-%-------|-%-------|-%-------|-%-------|-%-------|-%-------|-%-------|
D|-%-------|-%-------|-%-------|-%-------|-%-------|-%-------|-%-------|-%-------|-%-------|
A|---------|---------|---------|---------|---------|---------|---------|---------|---------|
E|---------|---------|---------|---------|---------|---------|---------|---------|---------|

E|---------|---------|---------|---------|---------|---------|---------|---------|---------|
B|---------|---------|---------|---------|---------|---------|---------|---------|---------|
G|-%-------|-%-------|-%-------|-%-------|-%-------|-%-------|-%-------|-%-------|-%-------|
D|-%-------|-%-------|-%-------|-%-------|-%-------|-%-------|-%-------|-%-------|-%-------|
A|---------|---------|---------|---------|---------|---------|---------|---------|---------|
E|---------|---------|---------|---------|---------|---------|---------|---------|---------|

E|---------|---------|---------|---------|---------|---------|---------|---------|---------|
B|---------|---------|---------|---------|---------|---------|---------|---------|---------|
G|-%-------|-%-------|-%-------|-%-------|-%-------|-%-------|-%-------|-%-------|-%-------|
D|-%-------|-%-------|-%-------|-%-------|-%-------|-%-------|-%-------|-%-------|-%-------|
A|---------|---------|---------|---------|---------|---------|---------|---------|---------|
E|---------|---------|---------|---------|---------|---------|---------|---------|---------|

E|-15-----15----13----|-15------|----------------10---10--------8-----|-10------|-10----10---8----6-----8-----|
B|--------------------|---------|------11---13------------------------|---------|-----------------------------|
G|--------------------|---------|-12------------------------%---------|---------|-----------------------------|
D|--------------------|---------|---------------------------%---------|---------|-----------------------------|
A|--------------------|---------|-------------------------------------|---------|-----------------------------|
E|--------------------|---------|-------------------------------------|---------|-----------------------------|

E|-10-----8----10-----|-10--------------------------------|-----------------------------|
B|--------------------|-------10--11--10--8---10----------|-----------6-----6-----------|
G|--------------------|-----------------------------10----|-10---7-----------------%----|
D|--------------------|-----------------------------------|------------------------%----|
A|--------------------|-----------------------------------|-----------------------------|
E|--------------------|-----------------------------------|-----------------------------|

E|-5-----6-----6-------------------|-6-------|-6-----------------3----|-3------3-----10---13---|
B|------------------8----6----8----|---------|--------------6---------|------------------------|
G|---------------------------------|---------|--------%---------------|------------------------|
D|---------------------------------|---------|--------%---------------|------------------------|
A|---------------------------------|---------|------------------------|------------------------|
E|---------------------------------|---------|------------------------|------------------------|

E|-15-----15---15---18----|-20---18----------------------------|------------------------|
B|------------------------|------------15--13------------------|--------11---11---11----|
G|------------------------|--------------------15--------10----|-12---------------------|
D|------------------------|-------------------------12---------|------------------------|
A|------------------------|------------------------------------|------------------------|
E|------------------------|------------------------------------|------------------------|

E|------------------------|-------------------------------|-10------|-10-----10---13-----|
B|------8----8-----8------|-8-----------13---13--11--13---|---------|--------------------|
G|-10---------------------|--------%----------------------|---------|--------------------|
D|------------------------|--------%----------------------|---------|--------------------|
A|------------------------|-------------------------------|---------|--------------------|
E|------------------------|-------------------------------|---------|--------------------|

E|-15---15---15----15-----|-15--13----------------------------------------|------------------10--8---6---8---|
B|------------------------|---------15-13-15--15----15----15--13------13--|-13----------11-------------------|
G|------------------------|---------------------------------------15------|--------12------------------------|
D|------------------------|-----------------------------------------------|----------------------------------|
A|------------------------|-----------------------------------------------|----------------------------------|
E|------------------------|-----------------------------------------------|----------------------------------|

E|-10-----10--13--10----15---15---|-18-----15---18---22----|-20---18---17--------15-----|
B|--------------------------------|------------------------|----------------18----------|
G|--------------------------------|------------------------|----------------------------|
D|--------------------------------|------------------------|----------------------------|
A|--------------------------------|------------------------|----------------------------|
E|--------------------------------|------------------------|----------------------------|

E|-15-----15----------|-------13----------12----|-12------|-12-----12----------|-------13----------12----|
B|--------------------|-11----------------------|---------|--------------------|-11----------------------|
G|--------------%-----|-------------12----------|---------|---------------%----|-------------12----------|
D|--------------%-----|-------------------------|---------|---------------%----|-------------------------|
A|--------------------|-------------------------|---------|--------------------|-------------------------|
E|--------------------|-------------------------|---------|--------------------|-------------------------|

E|-12------|-12------|-------13----------12----|-12------|-12------|-------13----------12----|
B|---------|---------|-11----------------------|---------|---------|-11----------------------|
G|---------|---------|-------------12----------|---------|---------|-------------12----------|
D|---------|---------|-------------------------|---------|---------|-------------------------|
A|---------|---------|-------------------------|---------|---------|-------------------------|
E|---------|---------|-------------------------|---------|---------|-------------------------|

E|-12------|-12------|-------13----------12----|-12------|-12------|-------13----------12----|
B|---------|---------|-11----------------------|---------|---------|-11----------------------|
G|---------|---------|-------------12----------|---------|---------|-------------12----------|
D|---------|---------|-------------------------|---------|---------|-------------------------|
A|---------|---------|-------------------------|---------|---------|-------------------------|
E|---------|---------|-------------------------|---------|---------|-------------------------|

E|-12------|----------------------------|-----------------------------------------|
B|---------|----------------------------|-----------------------------------------|
G|---------|-%--------------------------|------------------------------------0----|
D|---------|-%------3----3----3----3----|-3----3----3----3----3----3----3---------|
A|---------|----------------------------|-----------------------------------------|
E|---------|----------------------------|-----------------------------------------|

E|---------------|---------|-------13----------12----|-12------|-12------|-------13----------11----|
B|---------------|---------|-11----------------------|---------|---------|-11----------------------|
G|-0------%------|-%-------|-------------12----------|---------|---------|-------------12----------|
D|--------%------|-%-------|-------------------------|---------|---------|-------------------------|
A|---------------|---------|-------------------------|---------|---------|-------------------------|
E|---------------|---------|-------------------------|---------|---------|-------------------------|

E|-11------|-11------|-11-----11----10----|-10------|-10-------------------------|-----------------------------------------|
B|---------|---------|--------------------|---------|----------------------------|-----------------------------------------|
G|---------|---------|--------------------|---------|----------------------------|------------------------------------0----|
D|---------|---------|--------------------|---------|--------3----3----3----3----|-3----3----3----3----3----3----3---------|
A|---------|---------|--------------------|---------|----------------------------|-----------------------------------------|
E|---------|---------|--------------------|---------|----------------------------|-----------------------------------------|

E|---------------|---------|-------13----------12----|-12------|-12------|-10-----10---------8----|
B|---------------|---------|-11----------------------|---------|---------|--------------11--------|
G|-0------%------|-%-------|-------------12----------|---------|---------|------------------------|
D|--------%------|-%-------|-------------------------|---------|---------|------------------------|
A|---------------|---------|-------------------------|---------|---------|------------------------|
E|---------------|---------|-------------------------|---------|---------|------------------------|

E|---------|----------------------------|---------------------------------|---------|
B|-8-------|------------------8----6----|---------------------------------|---------|
G|---------|-%------%----7--------------|-7------7----5----3----5----3----|-0-------|
D|---------|-%------%-------------------|---------------------------------|---------|
A|---------|----------------------------|---------------------------------|---------|
E|---------|----------------------------|---------------------------------|---------|

E|---------|--------18-------------18----|-18------|-18----17----17-----|-17---------------------|
B|---------|-------------20--------------|---------|--------------------|--------18--------20----|
G|-0-------|-0----------------19---------|---------|--------------------|-------------19---------|
D|---------|--------20-------------------|---------|--------------------|------------------------|
A|---------|-----------------------------|---------|--------------------|------------------------|
E|---------|-----------------------------|---------|--------------------|------------------------|

E|---------|-15---13--------13----13-----|-13----18---15--------18---15--------20----|
B|-20------|-----------15----------------|-----------------15-------------15---------|
G|---------|-----------------------------|-------------------------------------------|
D|---------|-----------------------------|-------------------------------------------|
A|---------|-----------------------------|-------------------------------------------|
E|---------|-----------------------------|-------------------------------------------|

E|-20------|-20---18--------18---------------|------------18---22----18-------18---|
B|---------|-----------20--------20---20-----|-20----20------------------20--------|
G|---------|---------------------------------|-------------------------------------|
D|---------|---------------------------------|-------------------------------------|
A|---------|---------------------------------|-------------------------------------|
E|---------|---------------------------------|-------------------------------------|

E|---------|------------------------|---------------------------------|--------------------|
B|-20------|------------------------|---------------------------------|--------------------|
G|---------|-%------19---17---15----|---------------------------------|--------------------|
D|---------|-%----------------------|-17------------------------------|--------------------|
A|---------|------------------------|-------17---15---13---------10---|-10-----10-----10---|
E|---------|------------------------|-----------------------13--------|--------------------|

E|------------------------|-------------6---------3-----|-3------3------6---5---|-3----1----3-----3------|
B|------------------------|------------------6----------|-----------------------|------------------------|
G|-----------0-----0------|--------7--------------------|-----------------------|------------------------|
D|-8----------------------|-8---------------------------|-----------------------|------------------------|
A|------8-----------------|-----------------------------|-----------------------|------------------------|
E|------------------------|-----------------------------|-----------------------|------------------------|

E|-6-----10---8----10----11----|-11------|-11----11----11-----|-11-----11----------|
B|-----------------------------|---------|--------------------|--------------------|
G|-----------------------------|---------|--------------------|--------------11----|
D|-----------------------------|---------|--------------------|--------------------|
A|-----------------------------|---------|--------------------|--------------------|
E|-----------------------------|---------|--------------------|--------------------|

E|-----------------------------|--------------------|--------15---15-----|-15-----------15----|
B|-----------------------------|--------------------|--------------------|--------------------|
G|-11-----11----11---12---11---|-9----11-----11-----|-11-----------------|--------%-----------|
D|-----------------------------|--------------------|--------------------|--------%-----------|
A|-----------------------------|--------------------|--------------------|--------------------|
E|-----------------------------|--------------------|--------------------|--------------------|

E|-15----17----18----17----|-15----15---13--------13---------|---------|-10---8----6-----------------|
B|-------------------------|-----------------15--------15----|-15------|----------------8-----8------|
G|-------------------------|---------------------------------|---------|-----------------------------|
D|-------------------------|---------------------------------|---------|-----------------------------|
A|-------------------------|---------------------------------|---------|-----------------------------|
E|-------------------------|---------------------------------|---------|-----------------------------|

E|------15---17----18----23----|-23-----------23---22---|------20---22----22-----|-22----22----25----23----|
B|-----------------------------|------------------------|-23---------------------|-------------------------|
G|-%---------------------------|--------%---------------|------------------------|-------------------------|
D|-%---------------------------|--------%---------------|------------------------|-------------------------|
A|-----------------------------|------------------------|------------------------|-------------------------|
E|-----------------------------|------------------------|------------------------|-------------------------|

E|-23-----23----23---23--23--|-22------20---22----22-----|-22-----22----------|---------|
B|---------------------------|-----23--------------------|--------------------|---------|
G|---------------------------|---------------------------|--------------%-----|-%-------|
D|---------------------------|---------------------------|--------------%-----|-%-------|
A|---------------------------|---------------------------|--------------------|---------|
E|---------------------------|---------------------------|--------------------|---------|

E|---------|---------|---------|---------|---------|---------|---------|---------|---------|
B|---------|---------|---------|---------|---------|---------|---------|---------|---------|
G|-%-------|-%-------|-%-------|-%-------|-%-------|-%-------|-%-------|-%-------|-%-------|
D|-%-------|-%-------|-%-------|-%-------|-%-------|-%-------|-%-------|-%-------|-%-------|
A|---------|---------|---------|---------|---------|---------|---------|---------|---------|
E|---------|---------|---------|---------|---------|---------|---------|---------|---------|

E|---------|---------|---------|---------|---------|---------|---------|---------|---------|
B|---------|---------|---------|---------|---------|---------|---------|---------|---------|
G|-%-------|-%-------|-%-------|-%-------|-%-------|-%-------|-%-------|-%-------|-%-------|
D|-%-------|-%-------|-%-------|-%-------|-%-------|-%-------|-%-------|-%-------|-%-------|
A|---------|---------|---------|---------|---------|---------|---------|---------|---------|
E|---------|---------|---------|---------|---------|---------|---------|---------|---------|

E|---------|---------|---------|---------|---------|---------|---------|---------|---------|
B|---------|---------|---------|---------|---------|---------|---------|---------|---------|
G|-%-------|-%-------|-%-------|-%-------|-%-------|-%-------|-%-------|-%-------|-%-------|
D|-%-------|-%-------|-%-------|-%-------|-%-------|-%-------|-%-------|-%-------|-%-------|
A|---------|---------|---------|---------|---------|---------|---------|---------|---------|
E|---------|---------|---------|---------|---------|---------|---------|---------|---------|

E|---------|---------|---------|---------|---------|---------|---------|---------|-------------------10---|
B|---------|---------|---------|---------|---------|---------|---------|---------|------------------------|
G|-%-------|-%-------|-%-------|-%-------|-%-------|-%-------|-%-------|-%-------|-%------%-----%---------|
D|-%-------|-%-------|-%-------|-%-------|-%-------|-%-------|-%-------|-%-------|-%------%-----%---------|
A|---------|---------|---------|---------|---------|---------|---------|---------|------------------------|
E|---------|---------|---------|---------|---------|---------|---------|---------|------------------------|

E|-15----15----15---15---18---15---|-15-----15----------|-----------15---13----------|
B|---------------------------------|--------------------|------15-------------15-----|
G|---------------------------------|--------------%-----|-%--------------------------|
D|---------------------------------|--------------%-----|-%--------------------------|
A|---------------------------------|--------------------|----------------------------|
E|---------------------------------|--------------------|----------------------------|

E|---------------------------------|---------|-6----8----10----10-----|------6---------------6----------|
B|-15---13--------13---------------|---------|------------------------|-8---------8-----8---------------|
G|-----------15--------15---12-----|-%-------|------------------------|---------------------------%-----|
D|---------------------------------|-%-------|------------------------|---------------------------%-----|
A|---------------------------------|---------|------------------------|---------------------------------|
E|---------------------------------|---------|------------------------|---------------------------------|

E|--------15---18---15----|-15-----------------|---------|------------10---18---17---15----|
B|------------------------|--------------------|---------|---------------------------------|
G|-%----------------------|-------%-----%------|-%-------|-%-----%-------------------------|
D|-%----------------------|-------%-----%------|-%-------|-%-----%-------------------------|
A|------------------------|--------------------|---------|---------------------------------|
E|------------------------|--------------------|---------|---------------------------------|

E|-15-----15----22----|-22---------------18---22---20---18---|-20-----20---18---20----20---|
B|--------------------|-------------20-----------------------|-----------------------------|
G|--------------------|-------%------------------------------|-----------------------------|
D|--------------------|-------%------------------------------|-----------------------------|
A|--------------------|--------------------------------------|-----------------------------|
E|--------------------|--------------------------------------|-----------------------------|

E|-20---20---18---22----22-----|----------------------------|------------------------|
B|-----------------------------|--------20------------------|------------------11----|
G|-----------------------------|-%-----------22---19---17---|-15-----15---12---------|
D|-----------------------------|-%--------------------------|------------------------|
A|-----------------------------|----------------------------|------------------------|
E|-----------------------------|----------------------------|------------------------|

E|--------20--------18---17---|------------------------|-----------------18--------15----|
B|-11----------20-------------|-18--------15----15-----|------------15--------18---------|
G|----------------------------|------17----------------|-%-----%-------------------------|
D|----------------------------|------------------------|-%-----%-------------------------|
A|----------------------------|------------------------|---------------------------------|
E|----------------------------|------------------------|---------------------------------|

E|-15------------|-18---20---22----22-----|--------27---27---27----|-27-----------27---27---|
B|---------------|------------------------|------------------------|------------------------|
G|--------%------|------------------------|-%----------------------|-------%----------------|
D|--------%------|------------------------|-%----------------------|-------%----------------|
A|---------------|------------------------|------------------------|------------------------|
E|---------------|------------------------|------------------------|------------------------|

E|-30---27---30----30-----|-------30---30---27---30---27----|-27---------------------|
B|------------------------|---------------------------------|-------------------23---|
G|------------------------|-%-------------------------------|-------%------24--------|
D|------------------------|-%-------------------------------|-------%----------------|
A|------------------------|---------------------------------|------------------------|
E|------------------------|---------------------------------|------------------------|

E|-20----23----23-----|-23-----23----------|-------------------------------|------------------------|
B|--------------------|--------------------|-------------------------------|-20---22---20----20-----|
G|--------------------|--------------23----|-23-----23---24--23--21---23---|------------------------|
D|--------------------|--------------------|-------------------------------|------------------------|
A|--------------------|--------------------|-------------------------------|------------------------|
E|--------------------|--------------------|-------------------------------|------------------------|

E|---------------------------------|--------------------|-10---8----6----8----6----------6-----|
B|-----------------20---18---------|--------------------|--------------------------8-----------|
G|-%-----%----19-------------19----|-19-----19----%-----|--------------------------------------|
D|-%-----%-------------------------|--------------%-----|--------------------------------------|
A|---------------------------------|--------------------|--------------------------------------|
E|---------------------------------|--------------------|--------------------------------------|

E|-----------------------------|--------------------|---------|--------------------|
B|-8---------------------3-----|-3------3-----------|---------|--------------------|
G|-------7----5----3-----------|--------------%-----|-%-------|-%------%-----0-----|
D|-----------------------------|--------------%-----|-%-------|-%------%-----------|
A|-----------------------------|--------------------|---------|--------------------|
E|-----------------------------|--------------------|---------|--------------------|

E|--------------------|-------------3----6----3----|-8-----8-----8-----------|---------|
B|--------------------|----------------------------|-------------------7-----|-7-------|
G|-0------0-----%-----|-%------%-------------------|-------------------------|---------|
D|--------------%-----|-%------%-------------------|-------------------------|---------|
A|--------------------|----------------------------|-------------------------|---------|
E|--------------------|----------------------------|-------------------------|---------|

E|---------|---------|---------|---------|---------|--------------------|-----------------------------|
B|---------|---------|---------|---------|---------|--------------1-----|-1---------------------------|
G|-%-------|-%-------|-%-------|-%-------|-%-------|-%------%-----------|------------------------%----|
D|-%-------|-%-------|-%-------|-%-------|-%-------|-%------%-----------|-------3-----3-----3----%----|
A|---------|---------|---------|---------|---------|--------------------|-----------------------------|
E|---------|---------|---------|---------|---------|--------------------|-----------------------------|

E|-------------------------|--------------------|--------13----13----|-10-----------9-----|
B|-------------------------|--------------------|--------------------|--------------------|
G|-------------%-----------|--------------%-----|-%------------------|--------%-----------|
D|-3-----4-----%-----5-----|-5------5-----%-----|-%------------------|--------%-----------|
A|-------------------------|--------------------|--------------------|--------------------|
E|-------------------------|--------------------|--------------------|--------------------|

E|-9-------|---------|---------|---------|---------|---------|-------25---25---25----22--------|
B|---------|---------|---------|---------|---------|---------|---------------------------------|
G|---------|-%-------|-%-------|-%-------|-%-------|-%-------|-%--------------------------%----|
D|---------|-%-------|-%-------|-%-------|-%-------|-%-------|-%--------------------------%----|
A|---------|---------|---------|---------|---------|---------|---------------------------------|
E|---------|---------|---------|---------|---------|---------|---------------------------------|

E|-20---------------------|--------------------|-------------------------|-------------------------|
B|------------------------|--------------------|-------------------------|-------------------------|
G|------%----22----22-----|-22-----22----------|-------------------------|-------------------------|
D|------%-----------------|--------------------|-20----22----22----22----|-22----------20----22----|
A|------------------------|--------------22----|-------------------------|-------21----------------|
E|------------------------|--------------------|-------------------------|-------------------------|

E|-------------------------|-------------------------|--------------------|------------------------|
B|-------------------------|-------------------15----|--------------------|------------------------|
G|-------------------------|-------17----17----------|-17-----------------|------------------------|
D|-22----22----22----------|-20----------------------|-------14----14-----|-14----------12---13----|
A|-------------------20----|-------------------------|--------------------|--------15--------------|
E|-------------------------|-------------------------|--------------------|------------------------|

E|-------------11---13---11----|-------------------------|-15----------------------|
B|-------------11---13---11----|-------------------14----|-------14----------------|
G|-------10--------------------|-%-----------15----------|-------------15----%-----|
D|-13--------------------------|-%-----14----------------|-------------------%-----|
A|-----------------------------|-------------------------|-------------------------|
E|-----------------------------|-------------------------|-------------------------|

E|---------|---------|--------------10----|-10------|-10---8----6----10----10-----|
B|---------|---------|--------------------|---------|-----------------------------|
G|-%-------|-%-------|-%------%-----------|---------|-----------------------------|
D|-%-------|-%-------|-%------%-----------|---------|-----------------------------|
A|---------|---------|--------------------|---------|-----------------------------|
E|---------|---------|--------------------|---------|-----------------------------|

E|-10-----10----9-----|-9-----8-----6-----8-----|-9-----10----10-----|-10----11----13----16----|
B|--------------------|-------------------------|--------------------|-------------------------|
G|--------------------|-------------------------|--------------------|-------------------------|
D|--------------------|-------------------------|--------------------|-------------------------|
A|--------------------|-------------------------|--------------------|-------------------------|
E|--------------------|-------------------------|--------------------|-------------------------|

E|-16-----15-----|-15-----------------|--------------13----|-11---10---8-----8------|
B|---------------|-------16----16-----|-15-----15----------|------------------------|
G|---------------|--------------------|--------------------|------------------------|
D|---------------|--------------------|--------------------|------------------------|
A|---------------|--------------------|--------------------|------------------------|
E|---------------|--------------------|--------------------|------------------------|

E|------------------------|-------------------------|--------------------|-------------3----6----3----|
B|------------------------|-------------------------|--------------------|----------------------------|
G|------------------------|-------------%-----------|--------------%-----|-%------%-------------------|
D|-6----5----3-----3------|-3-----4-----%-----5-----|-5------5-----%-----|-%------%-------------------|
A|------------------------|-------------------------|--------------------|----------------------------|
E|------------------------|-------------------------|--------------------|----------------------------|

E|-8-----8-----8-----------|---------|---------|---------|---------|---------|---------|
B|-------------------7-----|-7-------|---------|---------|---------|---------|---------|
G|-------------------------|---------|-%-------|-%-------|-%-------|-%-------|-%-------|
D|-------------------------|---------|-%-------|-%-------|-%-------|-%-------|-%-------|
A|-------------------------|---------|---------|---------|---------|---------|---------|
E|-------------------------|---------|---------|---------|---------|---------|---------|

E|--------------------|-----------------------------|-------------------------|--------------------|
B|--------------1-----|-1---------------------------|-------------------------|--------------------|
G|-%------%-----------|------------------------%----|-------------%-----------|--------------%-----|
D|-%------%-----------|-------3-----3-----3----%----|-3-----4-----%-----5-----|-5------5-----%-----|
A|--------------------|-----------------------------|-------------------------|--------------------|
E|--------------------|-----------------------------|-------------------------|--------------------|

E|--------13----13----|-10-----------9-----|-9-------|---------|---------|---------|
B|--------------------|--------------------|---------|---------|---------|---------|
G|-%------------------|--------%-----------|---------|-%-------|-%-------|-%-------|
D|-%------------------|--------%-----------|---------|-%-------|-%-------|-%-------|
A|--------------------|--------------------|---------|---------|---------|---------|
E|--------------------|--------------------|---------|---------|---------|---------|

E|---------|---------|-------25---25---25----22--------|-20---------------------|--------------------|
B|---------|---------|---------------------------------|------------------------|--------------------|
G|-%-------|-%-------|-%--------------------------%----|------%----22----22-----|-22-----22----------|
D|-%-------|-%-------|-%--------------------------%----|------%-----------------|--------------------|
A|---------|---------|---------------------------------|------------------------|--------------22----|
E|---------|---------|---------------------------------|------------------------|--------------------|

E|-------------------------|-------------------------|-------------------------|-------------------------|
B|-------------------------|-------------------------|-------------------------|-------------------15----|
G|-------------------------|-------------------------|-------------------------|-------17----17----------|
D|-20----22----22----22----|-22----------20----22----|-22----22----22----------|-20----------------------|
A|-------------------------|-------21----------------|-------------------20----|-------------------------|
E|-------------------------|-------------------------|-------------------------|-------------------------|

E|--------------------|------------------------|-------------11---13---11----|-------------------------|
B|--------------------|------------------------|-------------11---13---11----|-------------------14----|
G|-17-----------------|------------------------|-------10--------------------|-%-----------15----------|
D|-------14----14-----|-14----------12---13----|-13--------------------------|-%-----14----------------|
A|--------------------|--------15--------------|-----------------------------|-------------------------|
E|--------------------|------------------------|-----------------------------|-------------------------|

E|-15----------------------|---------|---------|---------|---------|---------|-------13----------12----|
B|-------14----------------|---------|---------|---------|---------|---------|-11----------------------|
G|-------------15----%-----|-%-------|-%-------|-%-------|-%-------|-%-------|-------------12----------|
D|-------------------%-----|-%-------|-%-------|-%-------|-%-------|-%-------|-------------------------|
A|-------------------------|---------|---------|---------|---------|---------|-------------------------|
E|-------------------------|---------|---------|---------|---------|---------|-------------------------|

E|-12------|---------|---------|---------|---------|-------13----------12---13---|------20-------------22-------------20---|
B|---------|---------|---------|---------|---------|-11--------------------------|-----------------------------------------|
G|---------|-%-------|-%-------|-%-------|-%-------|-------------12--------------|-12--------22-------------22-------------|
D|---------|-%-------|-%-------|-%-------|-%-------|-----------------------------|-----------------------------------------|
A|---------|---------|---------|---------|---------|-----------------------------|----------------22-------------22--------|
E|---------|---------|---------|---------|---------|-----------------------------|-----------------------------------------|

E|--------------------------20-------------|-22-------------20-----------------------|
B|-----------------------------------------|-----------------------------------------|
G|-22--------21---22-------------22--------|------22-------------22--------21---22---|
D|-----------------------------------------|-----------------------------------------|
A|------22-------------22-------------22---|-----------22-------------22-------------|
E|-----------------------------------------|-----------------------------------------|

E|------20-------------22-------------20---|--------------------------20-------------|
B|-----------------------------------------|-----------------------------------------|
G|-----------22-------------22-------------|-22--------21---22-------------22--------|
D|-----------------------------------------|-----------------------------------------|
A|-22-------------22-------------22--------|------22-------------22-------------22---|
E|-----------------------------------------|-----------------------------------------|

E|-22-------------20-----------------------|------20-------------22-------------20---|
B|-----------------------------------------|-----------------------------------------|
G|------22-------------22--------21---22---|-----------22-------------22-------------|
D|-----------------------------------------|-----------------------------------------|
A|-----------22-------------22-------------|-22-------------22-------------22--------|
E|-----------------------------------------|-----------------------------------------|

E|--------------------------20-------------|-22-------------20-----------------------|
B|-----------------------------------------|-----------------------------------------|
G|-22--------21---22-------------22--------|------22-------------22--------21---22---|
D|-----------------------------------------|-----------------------------------------|
A|------22-------------22-------------22---|-----------22-------------22-------------|
E|-----------------------------------------|-----------------------------------------|

E|------20-------------22-------------20---|--------------------------20-------------|
B|-----------------------------------------|-----------------------------------------|
G|-----------22-------------22-------------|-22--------21---22-------------22--------|
D|-----------------------------------------|-----------------------------------------|
A|-22-------------22-------------22--------|------22-------------22-------------22---|
E|-----------------------------------------|-----------------------------------------|

E|-22-------------20-----------------------|------20-------------22-------------20---|
B|-----------------------------------------|-----------------------------------------|
G|------22-------------22--------21---22---|-----------22-------------22-------------|
D|-----------------------------------------|-----------------------------------------|
A|-----------22-------------22-------------|-22-------------22-------------22--------|
E|-----------------------------------------|-----------------------------------------|

E|--------------------------20-------------|-22-------------20-----------------------|
B|-----------------------------------------|-------------------------------23---23---|
G|-22--------21---22-------------22--------|------22-------------22------------------|
D|-----------------------------------------|-----------------------------------------|
A|------22-------------22-------------22---|-----------22-------------22-------------|
E|-----------------------------------------|-----------------------------------------|

E|---------------------------------|-----------------------------|---------------------------------|
B|-23---23---------22---------23---|-------23---------23---------|-22---------23---------22---22---|
G|-----------24---------24---------|-24---------24---------24----|------24---------24--------------|
D|---------------------------------|-----------------------------|---------------------------------|
A|---------------------------------|-----------------------------|---------------------------------|
E|---------------------------------|-----------------------------|---------------------------------|

E|---------------------------------|-----------------------------|---------------------------------|
B|-22---22---------21---------23---|-------23---------22---------|-21---------22-------------------|
G|-----------23---------23---------|-23---------23---------23----|------23---------23----21---22---|
D|---------------------------------|-----------------------------|---------------------------------|
A|---------------------------------|-----------------------------|---------------------------------|
E|---------------------------------|-----------------------------|---------------------------------|

E|------20-------------22-------------20---|--------------------------20-------------|
B|-----------------------------------------|-----------------------------------------|
G|-----------22-------------22-------------|-22--------21---22-------------22--------|
D|-----------------------------------------|-----------------------------------------|
A|-22-------------22-------------22--------|------22-------------22-------------22---|
E|-----------------------------------------|-----------------------------------------|

E|-22-------------20-----------------------|------20-------------22-------------20---|
B|-----------------------------------------|-----------------------------------------|
G|------22-------------22--------21---22---|-----------22-------------22-------------|
D|-----------------------------------------|-----------------------------------------|
A|-----------22-------------22-------------|-22-------------22-------------22--------|
E|-----------------------------------------|-----------------------------------------|

E|--------------------------20-------------|-22-------------20-----------------------|
B|-----------------------------------------|-----------------------------------------|
G|-22--------21---22-------------22--------|------22-------------22--------21---22---|
D|-----------------------------------------|-----------------------------------------|
A|------22-------------22-------------22---|-----------22-------------22-------------|
E|-----------------------------------------|-----------------------------------------|

E|------20-------------22-------------20---|--------------------------20-------------|
B|-----------------------------------------|-----------------------------------------|
G|-----------22-------------22-------------|-22--------21---22-------------22--------|
D|-----------------------------------------|-----------------------------------------|
A|-22-------------22-------------22--------|------22-------------22-------------22---|
E|-----------------------------------------|-----------------------------------------|

E|-22-------------20-----------------------|------20-------------22-------------20---|
B|-----------------------------------------|-----------------------------------------|
G|------22-------------22--------21---22---|-----------22-------------22-------------|
D|-----------------------------------------|-----------------------------------------|
A|-----------22-------------22-------------|-22-------------22-------------22--------|
E|-----------------------------------------|-----------------------------------------|

E|--------------------------20-------------|-22-------------20-----------------------|
B|-----------------------------------------|-----------------------------------------|
G|-22--------21---22-------------22--------|------22-------------22--------21---22---|
D|-----------------------------------------|-----------------------------------------|
A|------22-------------22-------------22---|-----------22-------------22-------------|
E|-----------------------------------------|-----------------------------------------|

E|------20-------------22-------------20---|--------------------------20-------------|
B|-----------------------------------------|-----------------------------------------|
G|-----------22-------------22-------------|-22--------21---22-------------22--------|
D|-----------------------------------------|-----------------------------------------|
A|-22-------------22-------------22--------|------22-------------22-------------22---|
E|-----------------------------------------|-----------------------------------------|

E|-22-------------20-----------------------|------20-------------22-------------20---|
B|-----------------------------------------|-----------------------------------------|
G|------22-------------22--------21---22---|-----------22-------------22-------------|
D|-----------------------------------------|-----------------------------------------|
A|-----------22-------------22-------------|-22-------------22-------------22--------|
E|-----------------------------------------|-----------------------------------------|

E|--------------------------20-------------|-22-------------20-----------------------|
B|-----------------------------------------|-------------------------------23--------|
G|-22--------21---22-------------22--------|------22-------------22-------------24---|
D|-----------------------------------------|-----------------------------------------|
A|------22-------------22-------------22---|-----------22-------------22-------------|
E|-----------------------------------------|-----------------------------------------|

E|-----------------------------------------|-----------------------------------------|
B|------23-------------22-------------23---|-----------23-------------23-------------|
G|-----------24-------------24-------------|-24-------------24-------------24--------|
D|-23-------------23-------------23--------|------23-------------23-------------23---|
A|-----------------------------------------|-----------------------------------------|
E|-----------------------------------------|-----------------------------------------|

E|-----------------------------------------|-----------------------------------------|
B|-22-------------23-------------22--------|------22-------------21-------------22---|
G|------24-------------24-------------23---|-----------23-------------23-------------|
D|-----------23-------------23-------------|-22-------------22-------------22--------|
A|-----------------------------------------|-----------------------------------------|
E|-----------------------------------------|-----------------------------------------|

E|-----------------------------------------|-----------------------------------------|
B|-----------23-------------22-------------|-21-------------22-----------------------|
G|-23-------------23-------------23--------|------23-------------23--------21---22---|
D|------22-------------22-------------22---|-----------22-------------22-------------|
A|-----------------------------------------|-----------------------------------------|
E|-----------------------------------------|-----------------------------------------|

E|------20-------------22-------------20---|--------------------------20-------------|
B|-----------------------------------------|-----------------------------------------|
G|-12--------22-------------22-------------|-22--------21---22-------------22--------|
D|-----------------------------------------|-----------------------------------------|
A|----------------22-------------22--------|------22-------------22-------------22---|
E|-----------------------------------------|-----------------------------------------|

E|-22-------------20---------------|
B|---------------------------------|
G|------22-------------22----------|
D|---------------------------------|
A|-----------22-------------22-----|
E|---------------------------------|
Pink Floyd - Shine On You Crazy Diamond (Parts I - V) (2)
Pink Floyd - Shine On You Crazy Diamond (Parts I - V) (2).gp4